Oops, an error
Loading. Please wait.

De Más tab

version 1
version 1

Whole song

Interactive

60 views 1 this week
no commentswrite comment
1 2 3 4 5
3 more votes to show rating
add to favorites
×
Save as Personal and add changes to this tab that will be seen only by you. Learn more ›
×
You can save this tab as Personal to edit and correct it or add notes. All changes will be seen only by you. Learn more »
launch autoscroll
font size
0
reset
how to read this tab
guitar tuner
edit
Autoscroll
slow
fast
+/-
esc
set tempo
stop
cadena perpetua
de mas

La cancion,segun me fije en el video,esta identica .La estructura
 de la queestaba antes esta bien,pero le agregue unos detalles
para que suene y la puedan tocar identica.


***TODA LA CANCION VA CON DISTORCION***

intro:G5
e|---------------------------------------|
B|---------------------------------------|
G|---------------------------------------|
D|--5--5-5--5-5--5-5--5-5--5-5--5-5--5-5-|
A|--5--5-5--5-5--5-5--5-5--5-5--5-5--5-5-|
E|--3--3-3--3-3--3-3--3-3--3-3--3-3--3-3-|

  G5
 un profesional,con habilidad el tiene la formula
e|--------------------------|
B|------------------------------|
G|------------------------------|
D|-5-5--5-5--5-5--5-5--5-5--5-5-|
A|-5-5--5-5--5-5--5-5--5-5--5-5-|
E|-3-3--3-3--3-3--3-3--3-3--3-3-|

  B5
 para triunfar,es juez y verdugo
e|------------------------------|
B|------------------------------|
G|-4-4--4-4--4-4--4-4-----------|
D|-4-4--4-4--4-4--4-4-----------|
A|-2-2--2-2--2-2--2-2-----------|
E|------------------------------|

    C5                               D5
 y no le vio la cara al fracaso en su vida.
e|------------------------------------------|
B|------------------------------------------|
G|-5-5--5-5--5-5--5-5--7-7--7-7--7-7--7-7---|
D|-5-5--5-5--5-5--5-5--7-7--7-7--7-7--7-7---|
A|-3-3--3-3--3-3--3-3--5-5--5-5--5-5--5-5---|
E|------------------------------------------|


***(el PM atras del acorde significa palm mute)***

            G5P 
tu especialidad esta en criticar
              B5P 
con bronca juzgando siempre a los demas
              C5P 
y nunca haces nada para respaldar
          D5P          D5
a tus pobres palabras.


(D5)             G5
Estas hablando de mas,
            B5            X 2
hablando de mas,
       C5         D5
hablando de mas...


            G5P 
vivis lo mejor, vivis lo peor
               B5P 
todo es mas extremo si te paso a vos,
           C5P 
no digas pavadas
                                        D5P 
contas siempre historias que a nadie le pasan.


               G5P 
se acuesta con seis, se enfrenta a un millon,
              B5P 
solo los mas chicos prestan atencion
                C5P 
pensa antes que nada
                      D5P                  D5
que nunca hay testigos para tus hazañas.


(D5)             G5
vivis hablando de mas,
             B5             X2
hablando de mas,
         C5       D5
hablando de mas...

***(arriva dice donde entra el acorde y
abajo como se toca)***

        C5                      D5
y siempre termina en el mismo rincon,
     G5                           B5
creyendo las cosas que el mismo invento
e|----------------------------------|
B|----------------------------------|
G|-5-5------7-7----------------4-4--|
D|-5-5------7-7-------5-5------4-4--|
A|-3-3------5-5-------5-5------2-2--|
E|--------------------3-3------------|

  C5                             C5
lamento que no te des cuenta que triste
       D5
es tu vida
e|----------------------------------------|
B|----------------------------------------|
G|--5-5------5-5------7-7-7-7-7-7-7-7-7---|
D|--5-5------5-5------7-7-7-7-7-7-7-7-7---|
A|--3-3------3-3------5-5-5-5-5-5-5-5-5---|
E|----------------------------------------|

            G5P 
tu especialidad esta en criticar
              B5P 
con bronca juzgando siempre a los demas
              C5P 
y nunca haces nada para respaldar
               D5P 
a tus pobres palabras.


              G5P 
te eh visto rogar, y se mucho mas
              B5P 
chupastes las medias para progresar
           C5P 
vivis engañando
                       D5P              D5
lloras en mi cara y reis a un costado.


(D5)               G5
vivis actuando de mas,
             B5              X2
actuando de mas,
          C5      D5
actuando de mas...

        C5                    D5
tendre que enfrentar esta situacion,
    G5                           B5
me siento distinto si escucho tu voz
e|----------------------------------|
B|----------------------------------|
G|-5-5------7-7----------------4-4--|
D|-5-5------7-7-------5-5------4-4--|
A|-3-3------5-5-------5-5------2-2--|
E|--------------------3-3------------|

   C5                     C5
sos parte de mis sentimientos,
                   D5
tendre que aceptarlo
e|----------------------------------------|
B|----------------------------------------|
G|--5-5------5-5------7-7-7-7-7-7-7-7-7---|
D|--5-5------5-5------7-7-7-7-7-7-7-7-7---|
A|--3-3------3-3------5-5-5-5-5-5-5-5-5---|
E|----------------------------------------|

           G5
te odio de mas,
           B5
te odio de mas,
        C5      D5
te odio de mas...


(D5)             G5
y yo te odio de mas,
           B5         X3
te odio de mas,
           C5
te odio de mas...

final:
        D5      C5  D5 C5 G5
e|--------------------------|
B|--------------------------|
G|--7-7-7--5--7--5----------|
D|--7-7-7--5--7--5--5-------|
A|--5-5-5--3--5--3--5-------|
E|------------------3-------|

            
            
Suggest correction
Creating personal tab
Creating personal tab
You can edit any tab online and save it as your Personal.

You can edit, replace or remove any tab part or add personal notes – all changes will be seen only by you.

Personal tabs can be accessed anytime from any device, even offline.
Learn more »
Give kudos to tab author, rate the tab!
1 2 3 4 5
comments
print report bad tab
guest
Wanna post a correction for this tab? Suggest correction