Oops, an error
Loading. Please wait.

Pánico chords

25 views 1 this week
no commentswrite comment
1 2 3 4 5
3 more votes to show rating
add to favorites
×
Save as Personal and add changes to this tab that will be seen only by you. Learn more ›
×
You can save this tab as Personal to edit and correct it or add notes. All changes will be seen only by you. Learn more »
launch autoscroll
font size
0
reset
transpose
0
reset
display chords
guitar tuner
edit
Autoscroll
slow
fast
+/-
esc
set tempo
stop
Strumming
There is no strumming pattern for this song yet. and get +5 IQ
Intro:

D - G - A

e---------------------------------------------------------
B---------------------------------------------------------
G----6-7-6-v7--6-7-6-v7-6---------------------------------
D-------------------------7--s9--9-s11-9-7----------------
A---------------------------------------------------------
E---------------------------------------------------------

e---------------------------------------------------------
B---------------------------------------------------------
G----6-7-6-v7--6-7-6-v7-6---------------------------------
D-------------------------7--s9--9--9-s11--11-------------
A---------------------------------------------------------
E---------------------------------------------------------

D                    G           A
Otra vez la sensación de estar peor que antes
D                    G          A
Otra vez la tentación que volverá a tentarme
G             A           D                    Bm
No quiero hacerme mal extraño el gusto del desastre
G                                      A
Para ser feliz habrá que entender que todo todo puede suceder

D                    G            A
Otra vez la perdición que intentará ganarme
D                    G          A
Otra vez la depresión que volverá a buscarme
G            A            D                   Bm
No quiero hacerte mal extraño el gusto del desastre
G                                        A
Para ser feliz tendrás que entender que todo todo puede sucederte

Estribillo:

D             A       Bm                    F#m
Esta noche es imposible que me seduzcan los miedos
G          D         E                   A            x2
Olvidemos por un rato nuestros peores momentos

Intro

D                    G              A
Otra vez la maldición que vuelve a controlarme
D                     G             A
Otra vez que no soy yo hay alguien en mi sangre
G            A            D                   Bm
No quiero hacerme mal extraño el gusto del desastre
G                                   A
Ni la tentación ni la perdición podrán venir conmigo ya me voy

Estribillo:

D             A       Bm                    F#m
Esta noche es imposible que me seduzcan los miedos
G          D         E                   A            x2
Olvidemos por un rato nuestros peores momentos

D             A
Esta noche es imposible


Aguante Cadena!!!!

            
            
Suggest correction
Creating personal tab
Creating personal tab
You can edit any tab online and save it as your Personal.

You can edit, replace or remove any tab part or add personal notes – all changes will be seen only by you.

Personal tabs can be accessed anytime from any device, even offline.
Learn more »
Give kudos to tab author, rate the tab!
1 2 3 4 5
comments
print report bad tab
guest
Wanna post a correction for this tab? Suggest correction