Oops, an error
Loading. Please wait.

Calle Goldin Meyer tab

15 views 1 this week
no commentswrite comment
1 2 3 4 5
3 more votes to show rating
add to favorites
×
Save as Personal and add changes to this tab that will be seen only by you. Learn more ›
×
You can save this tab as Personal to edit and correct it or add notes. All changes will be seen only by you. Learn more »
launch autoscroll
font size
0
reset
how to read this tab
guitar tuner
edit
Autoscroll
slow
fast
+/-
esc
set tempo
stop
Capo en el tercer traste

Intro: [ Am - E7 - Dm - Am
         Dm - Am - E7 - Am  ]x2

Am            E7
De la calle Goldin Meyer
Dm          Am
He oído hablar bastante
Dm                  Am
Robin Hood es su presidente
  E7                Am
Y Rasputín el sacristán

En las paredes de los parques
Se acostumbra ver a Dios
Bajo el canto de los frailes
Al estilo Mister Hyde

También dicen que en las noches
Siempre hay una mujer
Que desnuda despacito
Y despierta al despertar

En la calle Goldin Meyer
Venden fórmulas de amor
Fuman puros de La Habana
Al compás del rocanrol

      E7
Y la muerte viste un chal de seda blanca
                     Am
Con dos rosas en el pecho y una cinta en el cabello
                   E7
Cuando juega la locura en el patio de otras calles,
                        Am
En las calles de otras selvas
                                                    E7
En las selvas de otras manos, en las manos de otra gente,
                                       Am   A7
En las médulas del sol y los músculos del mar

        Dm              Am
Como el llanto de su bandera
                     E7                    Am A7
Que azul le cae el matiz de la sangre y la paz
         Dm               Am
Como el llanto de su bandera
                     E7                    Am
Que azul le cae el matiz de la sangre y la paz


e|-|-------------------------------------|-|
B|-|---------5h6-5------5-6-6h8-6-5h6-5--|-|
G|-|---4-5-7-------7---------------------|-|
D|-|-7-----------------------------------|-|
A|-|-------------------------------------|-|
E|-|-------------------------------------|-|

e|-|---------------------------------------|-|
B|-|-6-6-6-5----------------5--------------|-|
G|-|-7-7-7-5--7-5-5-----5-7---7---5-4---5--|-|
D|-|--------------7---------------------7--|-|
A|-|---------------------------------------|-|
E|-|---------------------------------------|-|


e|-|--5-5-5-4-5-7-4------7-7-7-5-7-8-5------8-8-8-7-8s10---12-10-----------|-|
B|-|----------------5------------------5--------------------------13-12-10-|-|
G|-|-----------------------------------------------------------------------|-|
D|-|-----------------------------------------------------------------------|-|
A|-|-----------------------------------------------------------------------|-|
E|-|-----------------------------------------------------------------------|-|
 |-|                                                             |-|
e|-|------------7//////////////////8////////////////10//////---------------|-|
B|-|-----------------------------------------------------------------------|-|
G|-|-----------------------------------------------------------------------|-|
D|-|-----------------------------------------------------------------------|-|
A|-|-----------------------------------------------------------------------|-|
E|-|-----------------------------------------------------------------------|-|


Am             E7                   Am
De la calle Goldin Meyer he oído hablar
Dm          Am           E7
Y siempre dicen de una mujer


        Am
Que te besa desde el cuello
        E7
Y te desnuda despacito
        Am
Te despierta cuatro veces
     E7
Te saluda, te sonríe
     Am              Dm
Y te deja para no volver
          Am
Para no volver
           E7     Am
Para no volver jamás...

      E7
Y la muerte viste un chal de seda blanca
                     Am
Con dos rosas en el pecho y una cinta en el cabello
                  E7
Cuando juega la locura en el patio de otras calles,
                        Am
En las calles de otras selvas
                                                    E7
En las selvas de otras manos, en las manos de otra gente,
                                       Am   A7
En las médulas del sol y los músculos del mar


        Dm              Am
Como el llanto de su bandera
                     E7                    Am A7
Que azul le cae el matiz de la sangre y la paz
         Dm               Am
Como el llanto de su bandera
                     E7
Que azul le cae el matiz... de la sangre y la...

Am - Dm - Am - Dm - Am - E7 - Am
Paz


Tablatura por Raúl Bocanegra

            
            
Suggest correction
Creating personal tab
Creating personal tab
You can edit any tab online and save it as your Personal.

You can edit, replace or remove any tab part or add personal notes – all changes will be seen only by you.

Personal tabs can be accessed anytime from any device, even offline.
Learn more »
Give kudos to tab author, rate the tab!
1 2 3 4 5
comments
print report bad tab
guest
Wanna post a correction for this tab? Suggest correction