Oops, an error
Loading. Please wait.

En Mis Besos tab

version 1
version 1

Whole song

103 views 1 this week
no commentswrite comment
1 2 3 4 5
3 more votes to show rating
add to favorites
×
Save as Personal and add changes to this tab that will be seen only by you. Learn more ›
×
You can save this tab as Personal to edit and correct it or add notes. All changes will be seen only by you. Learn more »
launch autoscroll
font size
0
reset
how to read this tab
guitar tuner
edit
Autoscroll
slow
fast
+/-
esc
set tempo
stop
esta cancion se la dedico a mi novia erikita... 
y uno de mis mejores amigos ...jorge que esta 
aprendiendo a tocar guitarra

bueno señores a lo que vinimos.. 
la cancion empieza con un punteo
que yo no se porque nadie a puesto en la pagina
si es muy facilito.. ojo pues
para que sea mas facil de aprender la he dividido
por partes cada parte esta separada por una fila de I... 


               
                                           (rapido)
e-1--3--5--3--5--6--5-I-1--3--5--3--1--3-I-1--1--1--3
b-3--5--6--5--6--8--6-I-3--5--6--5--3--5-I-3--3--3--5
g---------------------I------------------I-----------
d---------------------I------------------I-----------
a---------------------I------------------I-----------
E---------------------I------------------I-----------

   (rapido)
e-1--1--1--3-I-3--5--6--5--6--8---6--I
b-3--3--3--5-I-5--6--8--6--8--10--8--I
g------------I-----------------------I
d------------I-----------------------I
a------------I-----------------------I
E------------I-----------------------I

e-3--5--6--5--3--1--I
b-5--6--8--6--5--3--I
g-------------------I
d-------------------I
a-------------------I
E-------------------I

e--------5-3-1-3-5-------5-------5-------5-5-5-5-3-1-1/3-
b--1-1-1-----------1-1-1---1-1-1---1-1-1-----------------
g--------------------------------------------------------
d--------------------------------------------------------
a--------------------------------------------------------
E--------------------------------------------------------

e-------3-------3-------3-3-3-3-1-0-1-3-------3--I
b-1-1-1---1-1-1---1-1-1-----------------1-1-1----I
g------------------------------------------------I
d------------------------------------------------I
a------------------------------------------------I
E------------------------------------------------I

e-6-5-3-1-3-1-0---0-------------------------------
b---------------3---3-------3---------------------
g---------------------5-4-5-----------------------
d-----------------------------6-------------------
a-------------------------------------------------
E-------------------------------------------------

no se si es demasiado tarde.........

facil no?

cualquier duda... lo siento pero a mi me suena

            
            
Suggest correction
Creating personal tab
Creating personal tab
You can edit any tab online and save it as your Personal.

You can edit, replace or remove any tab part or add personal notes – all changes will be seen only by you.

Personal tabs can be accessed anytime from any device, even offline.
Learn more »
Give kudos to tab author, rate the tab!
1 2 3 4 5
comments
print report bad tab
guest
Wanna post a correction for this tab? Suggest correction