Oops, an error
Loading. Please wait.

En Mis Besos tab

version 3
version 3

Whole song

55 views 1 this week
no commentswrite comment
1 2 3 4 5
2 more votes to show rating
add to favorites
×
Save as Personal and add changes to this tab that will be seen only by you. Learn more ›
×
You can save this tab as Personal to edit and correct it or add notes. All changes will be seen only by you. Learn more »
launch autoscroll
font size
0
reset
how to read this tab
guitar tuner
edit
Autoscroll
slow
fast
+/-
esc
set tempo
stop
Introducción        F                        C
e|-1--3--5---3--5-6-5--------|-1--3--5---3--1--1h3-|
b|-3--5--6---5--6-8-6------6-|-3--5--6---5--3--3h5-|
g|---------------------5-----|---------------------|
d|-----------------------7---|---------------------|

                                            Gm
e|-1-0-1-1h3--1-0-1-1h3-|-3--5--6---5--6--8-6------|
b|-3-1-3-3h5--3-1-3-3h5-|-5--6--8---6--8-10-8----8-|
g|----------------------|--------------------------|
d|----------------------|-----------------------8--|

                  Dm                     F
e|-3--5--6---5--3r1-----|-------5--3---3-5-------5-|
b|-5--6--8---6--5r3-----|------------6-------------|
g|----------------------|-5-5-5------------5-5-5---|

                                 C
e|-------5--------5--5-5-5-3---5-3-|-------3--------3-|
b|---------------------------6-----|------------------|
g|-5-5-5----5-5-5------------------|-5-5-5----5-5-5---|

                        Gm
e|-------3--3-3-3-------3-|-------3--------3-|
b|----------------6-5-6---|------------------|
g|-5-5-5------------------|-3-3-3----3-3-3---|
                    Gm6         A7      A
e|--6-5-3-5-3---3-------------------------------------|
b|------------6---6-5-6-5-3-5-3---3-------------------|
g|------------------------------6---6-3-5-3-2-3-2-0-2-|

                      Gm                                 Dm
No sé si es demasiado tarde               aunque no me importa
e|--------------------------------10-12-13--------------------|
b|---------------------------10-11----------------------------|
g|-------------------------12---------------------------------|

                                    Gm
                   Tantas palabras existen
e|---0-1p0-0-1s5-5--------------------------------8-7-6-|
b|--3-----3------------------------------------10-------|
g|-2---------------------------------------7-7----------|

                  Dm                F           A
Que debiera ser posible     decirlo todo
e|----------------------------5r8----8--8h10-8--8---------------|
b|-----------------------5-6--------10----------9-10h11p10p8-10-|
g|---------------------7------------------------8---------------|

            Dm                                                  Gm
Pero no es así                    Hoy descubrí que con todas la letras
e|-------------------3-5h6p5p3-3-------------------------------------|
b|-----------6---5-6-------------6-----------------------------------|
g|----------7--7-----------------------------------------------------|

                                 Dm
            De una u otra forma unidas
e|---5-6h8p6----------------------------------5s10-10-12-13-|
b|-8-------------------------------------5-6----------------|
g|-------------------------------------7--------------------|


                        Gm                                        Dm
Creo que no sabría explicar                 Lo que con un beso te digo
e|-----------------------------6h8-6h8p6-5-6-------------------------|
b|---------------------------8---------------------------------------|
g|-------------------------7-----------------------------------------|

                           F                         C
                        Te digo lo sincero        te digo de ti que
e|-------------0-1s3-3s5------------------3h5p3r1-0-----------------|
b|-----------3------------------------------------------------------|
g|---------2--------------------------------------------------------|
d|---0-2-3----------------------------------------------------------|
a|-0----------------------------------------------------------------|

                  Gm                      Dm
quiero         Te digo de mi espera    te digo mereció la pena
e|---------10p8---6----------------6h8p6--5------------------------|
b|----------------8-----------------------6------------------------|
g|----10p9---------------------------------------------------------|

             F                      C              A
       Tanto lustro de aprender a decir
e|---------3-3s5----5-------5-------3------3---------|
b|-----5-6--------------------------5--5h6---6-5r3-2-|
g|---7---------------------------------------------2-|
d|-7-----------------------------------------------2-|
              Dm
Con un simple beso            [SOLO]          F
e|------------------------10-|-------5--3---3-5-------5-|
b|------------------5-6---10-|------------6-------------|
g|----------------7-------10-|-5-5-5------------5-5-5---|

                                 C
e|-------5--------5--5-5-5-3---5-3-|-------3--------3-|
b|---------------------------6-----|------------------|
g|-5-5-5----5-5-5------------------|-5-5-5----5-5-5---|

                        Gm
e|-------3--3-3-3-------3-|-------3--------3-|
b|----------------6-5-6---|------------------|
g|-5-5-5------------------|-3-3-3----3-3-3---|

                   A
e|-6-5-3-5-3---3------9----12---17-|
b|-----------6---6-5--10---14---17-|
g|--------------------9----14---18-|

   F                       C
Te digo lo sincero      te digo de ti que quiero
e|-----------------------------------------------3-5-6-|
b|------------------6-8-6------------------------------|
g|----------------9-------9----------------------------|

   Gm                       Dm                            F
Te digo de mi espera     te digo mereció la pena    tanto lustro
e|------------------10s--5----------------------------3-3r5-|
b|------------------11s-6-------------------------5-6-------|
g|------------------12s7------------------------7-----------|

                C               A              Dm
de aprender a decir              Con un simple beso
e|-----------------------------------------0h1-1---------|
b|------8-6-5h6--5---5h6-5h6p5s-2--------------3---------|
g|------------------------------2--------------2---------|
d|------------------------------2--------------0-----0-2-|
a|--------------------------------------------------0----|
e|-------------------------------------------------1-----|

   F                       C
Te digo lo sincero      te digo de ti que quiero
e|-1---------------6-5-3-------------------------------5-|
b|-1---------------------------------------------5-6-8---|
g|-2-----------------------------------------------------|

   Gm                      Dm                            F
Te digo de mi espera    te digo mereció la pena    tanto lustro
e|-8-6--------------10-12-13-------------------5-6-5-3-5-------|
b|-------------------------------------------------------------|
g|-------------------------------------------------------------|

                C                      A              Dm
de aprender a decir                      Con un simple beso
e|---------------------------------------------------------|
b|-----------------5-6-5-6-6r8-6h8p6-5r2-------------------|
g|-------------------------------------2-------------------|
d|-------------------------------------2-------------------|

                          Gm                A              Dm
                                             Con un simple beso
e|------------------10-12-13-10-12-10h12p10-9-----------------|
b|---------------10-------------------------------------------|
g|--------7-9-10----------------------------------------------|
d|-------7----------------------------------------------------|
a|--5-7-8-----------------------------------------------------|
e|-5----------------------------------------------------------|

                Gm      A                Dm
                           Con un simple beso
e|-------5--8-7-6---5-3-5--------------------|
b|---5-6-------------------------------------|
g|-7-----------------------------------------|

                                                        Dm
e|---------------------10-12-13-12-10--10--10----------------10-|
b|------------------10---------------14--10--10--10--10-----10--|
g|-----------7-9-10----------------------------12--10--9---10---|
d|---------7----------------------------------------------12----|
a|---5-7-8-----------------------------------------------12-----|
e|-5----------------------------------------------------10------|

Es versión de ?LOS POTES? de Santiago de Compostela

            
            
Suggest correction
Creating personal tab
Creating personal tab
You can edit any tab online and save it as your Personal.

You can edit, replace or remove any tab part or add personal notes – all changes will be seen only by you.

Personal tabs can be accessed anytime from any device, even offline.
Learn more »
Give kudos to tab author, rate the tab!
1 2 3 4 5
comments
print report bad tab
guest
Wanna post a correction for this tab? Suggest correction