Oops, an error
Loading. Please wait.

La Lola tab

version 1
version 1

Whole song

Interactive

520 views 3 this week
no commentswrite comment
1 2 3 4 5
3 more votes to show rating
add to favorites
×
Save as Personal and add changes to this tab that will be seen only by you. Learn more ›
×
You can save this tab as Personal to edit and correct it or add notes. All changes will be seen only by you. Learn more »
launch autoscroll
font size
0
reset
how to read this tab
guitar tuner
edit
Autoscroll
slow
fast
+/-
esc
set tempo
stop
ACORDES:> lam miM rem miM doM

El bajo c queda en LA llevando el ritmo

se llama lola y tiene historia
aunque mas que historia
sea un poema (lam)

su vida entera paso buscando noches de gloria...
como alma en pena

                             LAm

E------------5-5-5---------------5-5-5------------------------
B------------5-5-5---------------5-5-5------------------------
G------------5-5-5---------------5-5-5------------------------
D-------------------------------------------------------------
A----------0-----------------0--------------------------------
E--0--3-4------------0--3-4-----------------------------------


E----------------------------------------------------------
B---5>>>>>8-8--8-8>>>>10-8-7-----7>>>>9-7-5--------------- por 2
G----------------------------------------------------------
D----------------------------------------------------------
A----------------------------------------------------------
E--------------------------------------------0--3-4- empieza el
                                                     Rasgueo en lam


 LAm                        (MI )
detras de su manto de fria dama
REm       MI           LAm
tenia escondidas tremendas armas
    LAm                       (MI 
para las batallas del cara a cara
           (REm)            (LAm)
que con ventaja muy bien libraba


   LAm                    (DO )
le fue muy mal de mano en mano
           (MI               (LAm)
de boca en boca, y de cama en cama
                          (DO )
como una muñeca que se desgasta
          (MI              (LAm)
se queda vieja y la pena arratra


            DO 

oyeme mi lola mi tierna lola
          (MI                 (LAm)
tu triste vida es tu triste historia
                      (DO )
pero que manera de caminar
            (MI     REm    (LAm)
mira que soberbia hay en su mirar (3 veces)

EL PUNTEO ???????no m lo c XD  pero las notas son  lam miM rem miM doM

ACA SIGUE LAS MISMAS NOTAS

Fue mujer serena hasta en el instante
de entregarse presta  a sus amantes.
Es tiempo de llanto, es tiempo de duda,
de nostalgia y de su locura.

Tienes el consuelo de saberte llena
de cariño limpio y amor sincero,
porque nadie supo robar de tus besos
eso que te sobra y que nadie añora.

Es el tiempo de la arruga que no perdona
  es el tiempo de la fruta...

  y la pintura.

E---------------------------------------------------------------------
B---------------------------------------------------------------------
G---------------------------------------------------------------------
D--------------------------------------------------------------------
A--------------------------------------------------------------------
E---0--3-4- RIFF DE LA ???

            
            
Suggest correction
Creating personal tab
Creating personal tab
You can edit any tab online and save it as your Personal.

You can edit, replace or remove any tab part or add personal notes – all changes will be seen only by you.

Personal tabs can be accessed anytime from any device, even offline.
Learn more »
Give kudos to tab author, rate the tab!
1 2 3 4 5
comments
print report bad tab
guest
Wanna post a correction for this tab? Suggest correction