Oops, an error
Loading. Please wait.

El Puñal Y El Corazón bass

64 views 1 this week
no commentswrite comment
1 2 3 4 5
3 more votes to show rating
add to favorites
×
Save as Personal and add changes to this tab that will be seen only by you. Learn more ›
×
You can save this tab as Personal to edit and correct it or add notes. All changes will be seen only by you. Learn more »
launch autoscroll
font size
0
reset
guitar tuner
edit
Autoscroll
slow
fast
+/-
esc
set tempo
stop
Esta es una rola con un buen ritmo, solo escuchala un par
de veces para que agarres bien los tiempos...


  Intro
  Em           B7            Em            B7
G|----4--4-5-4|--4-4h5b4h5b4|----4--4-5-4-|------------|
D|--5---------|-4-----------|--5----------|--45s9-----|
A|7-----------|-------------|7------------|------------|
E|------------|7------------|-------------|7-----------|

  Ni hablar mujer...
  Em           B7           Am            B7
G|------------|------------|----5--------|------------|
D|-9------9---|------------|7-----7------|--9---9-----|
A|7--10--7--10|--9-6----6-9|-------------|----7-------|
E|------------|7----7-7----|-------------|7-----------|

  Em           E7           Am            Em
G|------------|--9----9---9|-------------|------------|
D|------------|----9----9--|7-5-4--------|---9--------|
A|--2------2--|7-----7-----|-----7-5-4---|7-----10----|
E|0---3--0---3|------------|-----------5-|------------|

  B7           Em
G|------------|------------|-------------||
D|------------|------------|-------------||
A|9--6--------|7s14 Dejar sonando        ||
E|------7-----|------------|-------------||

  Y si tu mujer...
  Em           B7           Am            B7
G|------------|------------|-------------|------------|
D|--9------9--|------------|-------------|------------|
A|7---10-7--10|--6-x----6-x|-------------|---6---9----|
E|------------|7------7----|5---8---5----|7-----------|

  Em           E7           Am            Em
G|------------|9-----------|-------------|------------|
D|--9------9--|--9---5-----|-------------|------------|
A|7---10-7--10|----7---7---|----7--------|------2-----|
E|------------|----------7-|5-8---5--8--5|0--3-----3--|

  B7           Em
G|------------|------------|-------------||
D|------------|------------|-------------||
A|2-----------|------------|-------------||
E|---2---4----|0 Dejar sonando ----------||

  Y si yo te pido...
  E            B7                         E
G|------------|------------|-------------|------------|
D|------------|------------|-------------|------------|
A|---0--2-----|-2--2-------|22-33-44-33-2|--0-2----0-2|
E|0-----------|-------2--2-|-------------|0------0----|
 *  6  veces  *  5  veces  *

  Por que cuando...
  E7           A            Am            E 
G|------------|------------|-------------|------------|
D|--------2---|------------|-------------|------------|
A|--0--2---2-1|0-0----0-0--|3-3---3-3-2-0|--0-2----0-2|
E|0-----------|---0-0-----0|---0-0-------|0------0----|
 *  3 veces   *

  B7           E
G|------------|------------||
D|------------|------------||
A|-2--2-------|------------||
E|-------2--2-|0-----------||
 *  4 veces   *

  Ni hablar mujer...
  Em           B7           Am            B7 
G|------------|------------|-------------|------------|
D|--9------9--|------------|-------------|------------|
A|7---10-7--10|--6------6--|-------------|---6--------|
E|------------|7---7--x---7|5---8---5----|7-----7-----|

  Em           E7           Am            Em
G|------------|9-----------|-------------|------------|
D|--9------9--|--9---5-----|-------------|------------|
A|7---10-7--10|----7---7---|----7------7-|------2-----|
E|------------|----------7-|5-8----5-8---|0--3-----3--|

  B7           Em
G|------------|------------||
D|------------|------------||
A|2-----------|------------||
E|---2--4-----|0-----------||

  Solo de acordeón
  Em    B7     Am    Em
G|-----|------|------------|-------------|4-5-4-------|
D|-----|------|7-5-4---9---|--9----------|------5-----|
A|----2|----9-|------7---10|7---10--7----|--------7---|
E|0-3--|7-6---|------------|----------7--|------------|
 * x 8 *


  Y ya no puedo más...
  Em           B7           Em            B7
G|------------|------------|-------------|------------|
D|------------|--1-4----1-4|-------------|--1-4----1-4|
A|----2------2|2------2----|------2------|2------2----|
E|0-3----0-3--|------------|0--3---------|------------|

  Em           Am           G      Am     D7-B7 Em
G|------------|------------|-------------|------------|
D|------------|------------|-------------|------------|
A|--------2---|--------7---|--2-5-------7|-5----777s14|
E|0---3-------|5---8-------|3-------5-8--|---7--------|

  Y ya no puedo más...
               B7           Em
G|------------|------------|-------------|------------|
D|------------|------------|--9-------9--| Asì hasta  |
A|-------7-5--|--6-9----6-9|7---10--7--10| el cambio  |
E|-----------8|7------7----|-------------| de ritmo   |


 Dudas, preguntas, comentarios o correcciones escribe a:
  laburka@

            
            
Suggest correction
Creating personal tab
Creating personal tab
You can edit any tab online and save it as your Personal.

You can edit, replace or remove any tab part or add personal notes – all changes will be seen only by you.

Personal tabs can be accessed anytime from any device, even offline.
Learn more »
Give kudos to tab author, rate the tab!
1 2 3 4 5
comments
print report bad tab
guest
Wanna post a correction for this tab? Suggest correction