Oops, an error
Loading. Please wait.

Ojalá Que Llueva Café tab

208 views 1 this week
no commentswrite comment
1 2 3 4 5
3 more votes to show rating
add to favorites
×
Save as Personal and add changes to this tab that will be seen only by you. Learn more ›
×
You can save this tab as Personal to edit and correct it or add notes. All changes will be seen only by you. Learn more »
launch autoscroll
font size
0
reset
how to read this tab
guitar tuner
edit
Autoscroll
slow
fast
+/-
esc
set tempo
stop
Ojala que llueva café: con café tacuaba

Acordes: DO, SOL, RE7, SOl, DO, SOL, RE7, SOL.

Intro:

1|-------3---2-3-2-3-5-3-2-3-5-3-2-5-3-0---3/---|
2|---0-3---------------------------------1--/---|
3|-0----------------------------------------/---|
4|------------------------------------------/---|
5|------------------------------------------/---|
6|------------------------------------------/---|


1|-2-3-5-3-2-3-5-3-2-5-3----------/---|
2|-----------------------3--------/---|
3|-------------------------4------/---|
4|---------------------------5----/---|
5|--------------------------------/---|
6|--------------------------------/---|


1|-------3--7--3--2--5--2--0--3--0--/
2|-----3----------------------------/
3|---4------------------------------/
4|-5--------------------------------/
5|----------------------------------/
6|----------------------------------/

1|------2------------------------------/---|
2|----3---3--1--3--1--0--1--0---0------/---|
3|----------------------------2---2--0-/---|
4|-------------------------------------/---|
5|-------------------------------------/---|
6|-------------------------------------/---|


1|-------3---------3----2-3-5-3-2-3-5-3-2-5-3--------/---|
2|---0-3---3-0---1----------------------------3------/---|
3|-0-----------0--------------------------------4----/---|
4|------------------------------------------------5--/---|
5|---------------------------------------------------/---|
6|---------------------------------------------------/---|


1|-------3--7--3--2--5--2--0--3--0--/
2|-----3----------------------------/
3|---4------------------------------/
4|-5--------------------------------/
5|----------------------------------/
6|----------------------------------/

1|------2------------------------------/---|
2|----3---3--1--3--1--0--1--0---0------/---|
3|----------------------------2---2--0-/---|
4|-------------------------------------/---|
5|-------------------------------------/---|
6|-------------------------------------/---|

Este es el intro de los violines y espero y les guste
es mi primera transcripción. nada más que la deben de tocar rápida
para que suene chida y saludos pa toda la banda de la ELEF de Lerdo
arriba los de 4to A y la rondalla voces unidas de parte de Daniel G.S
Suggest correction
Creating personal tab
Creating personal tab
You can edit any tab online and save it as your Personal.

You can edit, replace or remove any tab part or add personal notes – all changes will be seen only by you.

Personal tabs can be accessed anytime from any device, even offline.
Learn more »
Give kudos to tab author, rate the tab!
1 2 3 4 5
comments
print report bad tab
guest
Wanna post a correction for this tab? Suggest correction