Oops, an error
Loading. Please wait.

Trópico De Cáncer tab

version 1
version 1

Whole song

Interactive

111 views 1 this week
no commentswrite comment
1 2 3 4 5
2 more votes to show rating
add to favorites
×
Save as Personal and add changes to this tab that will be seen only by you. Learn more ›
×
You can save this tab as Personal to edit and correct it or add notes. All changes will be seen only by you. Learn more »
launch autoscroll
font size
0
reset
how to read this tab
guitar tuner
edit
Autoscroll
slow
fast
+/-
esc
set tempo
stop
INTRODUCCION TROPICO DE CANCER

E||-----------------------|-----------------------|
B||-----1--1----1--1---1--|-----1--1----1--1---1--|
G||-----2--2----2--2---2--|-----2--2----2--2---2--|
D||-----2--2----2--2---2--|-----2--2----2--2---2--|
A||--0--------0------0----|-----------------------|
E||-----------------------|--2--------2------2----|

E||----------------------|----------------------|
B||-----1--1----1--1--1--|-----1--1----1--1--1--|
G||-----2--2----2--2--2--|-----2--2----2--2--2--|
D||-----2--2----2--2--2--|-----2--2----2--2--2--|
A||----------------------|----------------------|
E||--1--------1-----1----|--0--------0-----0----|

FIG 1

     B9                          E6
E||---------------------------|---------------------------|
B||-----2--2----2--2----2-----|-----2--2----2--2----2-----|
G||-----2--2----2--2----2-----|-----1--1----1--1----1-----|
D||-----1--1----1--1----1-----|-----2--2----2--2----2-----|
A||--2--------2------2-----2--|--2--------2------2-----2--|
E||---------------------------|---------------------------|

FIG 2

     F#                          C9
E||---------------------------|---------------------------||
B||-----2--2----2--2----2-----|-----3--3----3--3----3-----||
G||-----3--3----3--3----3-----|-----3--3----3--3----3-----||
D||-----4--4----4--4----4-----|-----2--2----2--2----2-----||
A||-----------4------4-----4--|--3--------3------3-----3--||
E||--2------------------------|---------------------------||


FIG 1
Cómo es que te vas Salvador de la compañía si todavia hay mucho verdor.
Si el progreso es nuestro oficio y aun queda por ahí mucho indio que no
sabe lo que es vivir en una ciudad... como la gente.

FIG 1
Que no ves que eres un puente entre el salvajismo y el modernismo.
Salvador, el ingeniero, Salvador de la humanidad.

FIG 1
Esta muy bien lo que tu piensas pero por que tu no te acuerdas que la
nuestra es una civilizacion muy avanzada... como dice la gente

FIG 1
Que no ves que nuestra mente no debe tomar en cuenta a ecologistas,
indigenistas, retrogradistas ni humanistas.

FIG 2
Ay mis ingenieros, civiles y asociados, no crean que no me duele irme
de su lado pero es que yo pienso que ha llegado el tiempo, de darle lugar
a los espacios sin cemento...

FIG 1
Por eso yo ya me voy.  No quiero tener nada que ver,
con esta fea relacion de accion, construccion, destruccion AH AHHHHH

Acapella- Sin guitarra
Como es que te vas Salvador de la compañía si todavia hay mucho verdor...

FIG 1- X 2

FIG 2
Ay mis compañeros, petroleros mexicanos, no crean que no extraño
el olor a oleo puro.  Pero es que yo pienso que nosotros los humanos
no necesitamos, mas hidrocarburos...

FIG 1
Por eso yo ya me voy.  No quiero tener nada que ver,   con esta fea
relacion de accion, construccion, destruccion AH AHHHHH

            
            
Suggest correction
Creating personal tab
Creating personal tab
You can edit any tab online and save it as your Personal.

You can edit, replace or remove any tab part or add personal notes – all changes will be seen only by you.

Personal tabs can be accessed anytime from any device, even offline.
Learn more »
Give kudos to tab author, rate the tab!
1 2 3 4 5
comments
print report bad tab
guest
Wanna post a correction for this tab? Suggest correction