Oops, an error
Loading. Please wait.

Una Mañana chords

version 2
version 2

Whole song

Interactive

260 views 3 this week
no commentswrite comment
1 2 3 4 5
3 more votes to show rating
add to favorites
×
Save as Personal and add changes to this tab that will be seen only by you. Learn more ›
×
You can save this tab as Personal to edit and correct it or add notes. All changes will be seen only by you. Learn more »
launch autoscroll
font size
0
reset
transpose
0
reset
simplify chords
display chords
guitar tuner
edit
Autoscroll
slow
fast
+/-
esc
set tempo
stop
Strumming
There is no strumming pattern for this song yet. and get +5 IQ
Esta es la figura que se lleva en casi toda la canciòn.

  Fig. 1
     Am11     Abm7(-5)    Gm       C9
e|--------------------------------------------|
B|-------3-------3----------3---------3-------|
G|-------5-------5----------3---------3-------|
D|----5-------4------4---3-----3---2-----2-3--|
A|---------------------------------3----------|
E|----5-------4----------3--------------------|

Fig. 2
    Cm11   Bm7(-5)    Bbmaj7      Bbmaj13
e|--------------------------------------------|
B|-----6------6----------6----------6---------|
G|-----8------8----------7----------5---------|
D|--8------7-----7---7-------7---5-----7-8----|
A|--------------------------------------------|
E|--8------7---------6-----------6------------|


      Fig.1
Una mañana
      Fig.1
Una mañana linda
       Fig.2
tu corazòn como una flor
          Fig.1
a mi se entregara

Una mañana
una mañana linda 
mi corazòn como una flor
a ti se entregara

 Cm9     F13
Linda sera
                Bbmaj7       G(#5)
cuando me digas creo en tu amor
                Cm9       F13
me digas que no sientes temor
                 Bbmaj7   G(#5)
y cuando salga el sol   sera.

      Fig.1
Una mañana  (se repite).....

     
       EADGBe               
       ------               
Cm9:   x3133x        
F13:   1x123x        
Bbmaj7:x1323x   
G(#5): 32344x    

Espero y les guste esta transcripcion  
de esta gran cancion. 
Alejo.
Suggest correction
Creating personal tab
Creating personal tab
You can edit any tab online and save it as your Personal.

You can edit, replace or remove any tab part or add personal notes – all changes will be seen only by you.

Personal tabs can be accessed anytime from any device, even offline.
Learn more »
Give kudos to tab author, rate the tab!
1 2 3 4 5
comments
print report bad tab
guest
Wanna post a correction for this tab? Suggest correction