Oops, an error
Loading. Please wait.

Una Mañana tab

version 2
version 2

Whole song

Interactive

392 views 1 this week
no commentswrite comment
1 2 3 4 5
3 more votes to show rating
add to favorites
×
Save as Personal and add changes to this tab that will be seen only by you. Learn more ›
×
You can save this tab as Personal to edit and correct it or add notes. All changes will be seen only by you. Learn more »
launch autoscroll
font size
0
reset
how to read this tab
guitar tuner
edit
Autoscroll
slow
fast
+/-
esc
set tempo
stop
Pues aqui esta mi version del solo de piano de la cancion de Una Mañana.
Es la primera transcripcion que mando asi que por favor chequenla a ver
tal se oye. Mire la otra transcripcion del solo enviada por
xerching@ y pues no me gusto. Por favor chequenla y corrigan
si hay alguna error.

tr=trill= 8h10p8h10p8etc
~ notas largas

1:24
e--------------------------------------------------------------
B--------------------------------------------------------------
G-7-7--5-7-8-7-5-7---5-7-8-7-5---7-7--5-7-8-7-5-7~--5-7-8-7-5--

1:34                           1:42
e------5------------------------------------
B--6~----6---6---------4-7~-8------4-7-8-5-7-
G----------7---7~--4-7---------4-7-----------

1:44
e---------------------------------
B---8tr~~-8-10-11-10-8-10~--------
G--------------------------9-11-7-

  1:53
e|-8-------------10~--8-----8-------7-8-10-8--------
B|---11-11-10-8~---------10---10--8-----------11--8-
G|--------------------------------------------------

            
            
Suggest correction
Creating personal tab
Creating personal tab
You can edit any tab online and save it as your Personal.

You can edit, replace or remove any tab part or add personal notes – all changes will be seen only by you.

Personal tabs can be accessed anytime from any device, even offline.
Learn more »
Give kudos to tab author, rate the tab!
1 2 3 4 5
comments
print report bad tab
guest
Wanna post a correction for this tab? Suggest correction