Oops, an error
Loading. Please wait.

Vámonos bass

76 views 1 this week
no commentswrite comment
1 2 3 4 5
3 more votes to show rating
add to favorites
×
Save as Personal and add changes to this tab that will be seen only by you. Learn more ›
×
You can save this tab as Personal to edit and correct it or add notes. All changes will be seen only by you. Learn more »
launch autoscroll
font size
0
reset
guitar tuner
edit
Autoscroll
slow
fast
+/-
esc
set tempo
stop
q tranza la banda ps aqui les tengo esta rola la verdad es q esta muy
facil nada mas es de q escuchen bien los tiempos, en toda la rola  son
las mismas notas escuchen bien el ritmo para q les salga chido.
cualquier duda a mi correo.

El bajo entra hasta el segundo:54
verso:

Las nubes viajan detrás del cristal
Y las montañas se vienen  y van
G--------------------------------
D--------------------------------
A--3-33-3-33--------------------
E--------------------------------

Yo te regalo esta flor que encontré
En tu cabello que bien mírate

G--------------------------------
D--------------------------------
A--------------------------------
E--5-55-5-55---------------------

Donde    vamos
G--------------------------------
D--------------------------------
A--5555----3333------------------    2x
E------555-----------------------

Y nuestra casa se quedo allá atrás
Allá  adelante que iré a encontrar

G--------------------------------
D--------------------------------
A--3-33-3-33------------3-33-3-33---
E------------5-55-5-55------------5-55-5-55

Tu tu ru ru rur ru ru

G--------------------------------
D--------------------------------
A--3333333----33333333----3333333   2x
E--------------------------------

G--------------------------------
D--------------------------------
A--3333333----33333333----3333333
E--------------------------------

En este camino no hay nadie mas
Tu eres la reina y yo soy el rey
Con esta arena te hice un collar
Es de conchitas todas de carey

G--------------------------------
D--------------------------------
A--3-33-3-33---------------------
E--------------------5-55-5-55---


G--------------------------------
D--------------------------------
A--------3-------5---------------   2x
E--5-----------------------------

Y nuestra casa se quedo allá atrás
Allá  adelante que iré a encontrar
Y mis amigos que aquí ya encontré
Como las olas que vienen y van

G--------------------------------
D--------------------------------
A--3-33-3-33---------------------
E--------------------5-55-5-55---


Canto
tu tu ru ru ru ru ru

G--------------------------------
D--------------------------------
A--3333333----33333333----3333333
E--------------------------------

tu tu ru ru ru ru ru


G--------------------------------
D--------------------------------
A--------------------------------
E-555555-----5555555-----5555555-

FINAL
G--------------------------------
D--------------------------------
A--3333333-----------------------  4x
E--------------------55555555----

G-------
D-------
A--3----
E-------

ESTA FACIL NADAMAS ESCUCHENLA PARA Q SEPAN Q PEX
SALUDOS A VIVIANA

            
            
Suggest correction
Creating personal tab
Creating personal tab
You can edit any tab online and save it as your Personal.

You can edit, replace or remove any tab part or add personal notes – all changes will be seen only by you.

Personal tabs can be accessed anytime from any device, even offline.
Learn more »
Give kudos to tab author, rate the tab!
1 2 3 4 5
comments
print report bad tab
guest
Wanna post a correction for this tab? Suggest correction