Oops, an error
Loading. Please wait.

Detrás De Ti tab

version 1
version 1

Whole song

Interactive

211 views 6 this week
no commentswrite comment
1 2 3 4 5
3 more votes to show rating
add to favorites
×
Save as Personal and add changes to this tab that will be seen only by you. Learn more ›
×
You can save this tab as Personal to edit and correct it or add notes. All changes will be seen only by you. Learn more »
launch autoscroll
font size
0
reset
how to read this tab
guitar tuner
edit
Autoscroll
slow
fast
+/-
esc
set tempo
stop
 que onda guitarreros los saluda el caifan aqui desde
 tampico tamaulipas con esta rola  tan chingona que no se
 por que no la habian sacado pero ahora ya no importa
 por que aqui esta que la disafruten y echenle muchas ganas

este es el intro y es varias veces 


|----------------------------------------------|
|----------------------------------------------|
|----------------------------------------------|
|-0-5-0-4-0--0-5-0-4-0--0-5-0-4-0--0-5-0-4-0---|
|----------------------------------------------|
|----------------------------------------------|

OJO: en todos los parrafos menos los coros si le ponen mucha 
atención a la rola podran escuchar que una guitarra esta raspando 
la cuarta cuerda con la plumilla de izq. a der. son cuatro raspados
por segundo en esta parte que empieza a cantar ponganle atención
y se escucha

   voy detras de ti como un perro infeliz 

|-7-7-----7------7---7------7------7---7/10----|
|-7-7-----7------7---7------7------7---7-------|
|----------------------------------------------|
|----------------------------------------------|
|----------------------------------------------|
|----------------------------------------------|

   voy detras de ti como una sombra vil

|-7-7-----7------7---7----7---10--0---5--------|
|-7-7-----7------7---7----7---10--0---5--------|
|----------------------------------------------|
|----------------------------------------------|
|----------------------------------------------|
|----------------------------------------------|

    ya no quiero anda  ar    detras de ti

|----------------------------------------------|
|----------------------------------------------|
|----------------------------------------------|
|-3-----------2-----5--4-----------------------|
|-3-----------2-----5--4-----------------------|
|-1-----------0-----3--2-----------------------|

|----------------------------------------------|
|----------------------------------------------|
|----------------------------------------------|
|-0-5-0-4-0--0-5-0-4-0--0-5-0-4-0--0-5-0-4-0---|
|----------------------------------------------|
|----------------------------------------------|

   voy detras de ti como nunca nadie fue


|-7-7-----7------7---7------7------7---7-5-0-0-|
|-7-7-----7------7---7------7------7---7-7-0-0-|
|----------------------------------------------|
|----------------------------------------------|
|----------------------------------------------|
|----------------------------------------------|


  voy detras de ti        como nunca nadie andara

|-7-7-----5/7---7-7-7-7----------7-------7-----5-5-5-|
|-7-7-----7-----7-7-7-7----------7-------7-----7-7-7-|
|----------------------------------------------------|
|----------------------------------------------------|
|----------------------------------------------------|
|----------------------------------------------------|

  ya no quiero anda  ar    detras de ti

|----------------------------------------------|
|----------------------------------------------|
|----------------------------------------------|
|-3-----------2-----5--4-----------------------|
|-3-----------2-----5--4-----------------------|
|-1-----------0-----3--2-----------------------|

|------------------------------|
|------------------------------|
|------------------------------|
|-0-5-0-4-0--0-5-0-4-0---0-0-0-|
|------------------------------|
|------------------------------|

 nunca volteas     nunca me miras 

|-5-5-5---7-7-7--5-5-5-----7-7-7---------------|
|-6-6-6---8-8-8--6-6-6-----8-8-8---------------|
|-5-5-5---7-7-7--5-5-5-----7-7-7---------------|
|----------------------------------------------|
|----------------------------------------------|
|----------------------------------------------|

   ya lo sabes    y nunca detras de ti

|-5-5-5---7-7-7--5-5-5-----7-7-7-5-------------|
|-6-6-6---8-8-8--6-6-6-----8-8-8-6-------------|
|-5-5-5---7-7-7--5-5-5-----7-7-7-5-------------|
|----------------------------------------------|
|----------------------------------------------|
|----------------------------------------------|

|----------------------|
|----------------------|
|----------------------|
|-0-5-0-4-0--0-5-0-4-0-|
|----------------------|
|----------------------|


los tres sietes que estan entre parentesis son armonicos
artificiales tocandolo con la llema del dedo dejandolo sonar
y el siete que tiene las cuatro cruces quiere decir que
se afloja la cuerda con la palanca cuatro veces ojala 
me entiendan

|-------(7)-------------------------|
|-(7)-------------------------------|
|----(7)---7++++--9^-9--------------|
|----------------------4-5-7-7-5-4--|
|----------------------------------5|
|-----------------------------------|

   voy detras de ti recogiendote la piel

|-7-7-----7------7---7------7------7---7-5-0-0-|
|-7-7-----7------7---7------7------7---7-7-0-0-|
|----------------------------------------------|
|----------------------------------------------|
|----------------------------------------------|
|----------------------------------------------|

  voy recogiendo lagrimas         en un vaso de papel

|-7-7-----7------7---7--7-7-7-7-7---7---7-------7--7-----|
|-7-7-----7------7---7--7-7-7-7-7---7---7-------7--7-----|
|--------------------------------------------------------|
|--------------------------------------------------------|
|--------------------------------------------------------|
|--------------------------------------------------------|

 ya no quiero anda  ar    detras de ti

|----------------------------------------------|
|----------------------------------------------|
|----------------------------------------------|
|-3-----------2-----5--4-----------------------|
|-3-----------2-----5--4-----------------------|
|-1-----------0-----3--2-----------------------|

|-----------------------------|
|-----------------------------|
|-----------------------------|
|-0-5-0-4-0--0-5-0-4-0---0-0-0|
|-----------------------------|
|-----------------------------|

 nunca volteas     nunca me miras 

|-5-5-5---7-7-7--5-5-5-----7-7-7---------------|
|-6-6-6---8-8-8--6-6-6-----8-8-8---------------|
|-5-5-5---7-7-7--5-5-5-----7-7-7---------------|
|----------------------------------------------|
|----------------------------------------------|
|----------------------------------------------|

   ya lo sabes    y nunca detras    de ti

|-5-5-5---7-7-7--5-5-5-----7-7-7-5-------------|
|-6-6-6---8-8-8--6-6-6-----8-8-8-6-------------|
|-5-5-5---7-7-7--5-5-5-----7-7-7-5-------------|
|----------------------------------------------|
|----------------------------------------------|
|----------------------------------------------|

el numero 10 que tiene el signo de interrogación quiere decir
que unicamente se golpea ese traste con el dedo si tocarlo con 
la plumilla si le ponen atención a la rola la van a escuchar

|---------------------------------------------------------|
|-----------------8---------8/10-10-10h13-10-8-10-8-7-----|
|-10?-9/~7~--7/9-10---10-9-7------------------------------|
|---------------------------------------------------------|
|---------------------------------------------------------|
|---------------------------------------------------------|

|---------------------------------------------------------|
|-15-15h18p15-18/20-18-18-18--18-20^20^20^----------------|
|-14---------------------------------------17-17-19-------|
|---------------------------------------------------------|
|---------------------------------------------------------|
|---------------------------------------------------------|

|---------------------------------------------------------|
|-18-18-18-18-18-18-~20~-18-18-~20~-------18-20-----------|
|-----------------------------------17-19-----------------|
|---------------------------------------------------------|
|---------------------------------------------------------|
|---------------------------------------------------------|

esta parte que esta en parentesis es tremoleado

|---------------------------------------------------------|
|20^20^20^20^20^20^-~18~----------------------------------|
|------------------------(9-7-9-10-9-7-5------------------|
|----------------------------------------8-6-4-2-4-2------|
|----------------------------------------------------5)---|
|---------------------------------------------------------|

|---------------------------------10-10-10-10-10-10-10-10-|
|---------------------------------10 10 10 10 10 10 10 10-|
|-5xx-5xx-5xx-5xx-5xx-5xx-5xx-5xx--7--7--7--7--7--7--7--7-|
|---------------------------------------------------------|
|---------------------------------------------------------|
|---------------------------------------------------------|

 esta parte es con el bajo

ya noooooooooo

|-------------------------------------|
|-------------------------------------|
|-3-----3--3-----3--3-----3--3-----3--|
|---1-1------1-1------1-1------1-1----|

ya noooooooooo uojojojo 

|-------------------------------------|
|-------------------------------------|
|-3-----3--3-----3--3-----3--3-----3--|
|---1-1------1-1------1-1------1-1----|

  no   no   no   no   no   no   noooooooooo

|---------------------------------------------------|
|---------------------------------------------------|
|---------------------------------------------------|
|-5555555--66666666--88888888--10-10-10-10-10-10-10-|

outro:

|---------------------------------------------------------|
|----15-------------------------15------------------------|
|-14----14-17--14-17-14------14----14-17--14-17-14--------|
|---------------------------------------------------------|
|---------------------------------------------------------|
|---------------------------------------------------------|

|---------------------------------------------------------|
|----15-------------------------15------------------------|
|-14----14-17--14-17-14------14----14-17--14-17-14--------|
|---------------------------------------------------------|
|---------------------------------------------------------|
|---------------------------------------------------------|

|----------------------|
|----------------------|
|----------------------|
|-0-5-0-4-0--0-5-0-4-0-|
|----------------------|
|----------------------|

toda esta canción va dedicada para muchos de mis amigos de aqui
de tampico y para alguien especial para Cinthia y para toda la
rondalla de la universidad valle del bravo campus tampico que 
ahí fue donde me inicie.

bueno esto es todo 
cualquier corrección o alguna duda escriban

            
            
Suggest correction
Creating personal tab
Creating personal tab
You can edit any tab online and save it as your Personal.

You can edit, replace or remove any tab part or add personal notes – all changes will be seen only by you.

Personal tabs can be accessed anytime from any device, even offline.
Learn more »
Give kudos to tab author, rate the tab!
1 2 3 4 5
comments
print report bad tab
guest
Wanna post a correction for this tab? Suggest correction