Oops, an error
Loading. Please wait.

El León tab

19 views 1 this week
no commentswrite comment
1 2 3 4 5
3 more votes to show rating
add to favorites
×
Save as Personal and add changes to this tab that will be seen only by you. Learn more ›
×
You can save this tab as Personal to edit and correct it or add notes. All changes will be seen only by you. Learn more »
launch autoscroll
font size
0
reset
how to read this tab
guitar tuner
edit
Autoscroll
slow
fast
+/-
esc
set tempo
stop
El león


Esta rola viene en el disco ?Tributo a Chabelo?, 
es una participación de Saul Hernández y Sabo Romo, 
pero la incluyo en Caifanes para que no
 se pierda en la nada,
 me divierto mucho al tocarla, empecemos:

INTRO

       Am                              Am
e ||---5----------------------------|--5-------------------------------||
B ||---5----------------------------|--5-------------------------------||
G ||---5----------------------------|--5-------------------------------||
D ||---7----------------------------|--7-------------------------------||
A ||---7----------------------------|--7-------------------------------||
E ||---5----------------------------|--5-------------------------------||

      Am                               Am      G7      F7       E7
e ||--5-----------------------------|--5-------3-------1--------0------||
B ||--5-----------------------------|--5-------3-------1--------0------||
G ||--5-----------------------------|--5-------4-------2--------1------||
D ||--7-----------------------------|--7-------3-------1--------0------||
A ||--7-----------------------------|--7-------5-------3--------2------||
E ||--5-----------------------------|--5-------3-------1--------0------||


Am
Un león escapó de su jaula
Por descuido de su domador
Dm
Ël esta con hambre 
No come desde anoche
Em
Peligra que se coma mi bombón

Am
Un león anda suelto en la calle
Mi hermanita aún no volvió
Dm
Jamás tendrá problemas
Con su alimentación
Em
Si se encuentra a mi hermanita por ahí


D5
A usted que esta en su casa 
      A5
Un consejo le doy
D5
Cierre las ventanas
          A5
´tranque bien el portón
D5
Pues en algún momento
       A5
Por delante o detrás

B5                    E5
Puede aparecer el tal león


Un león anda suelto en la calle
Calamidad igual nunca vi
Jamás tendrá problemas
Con su alimentación
SI se encuentra A MI hermanita por ahí

Solo (Sencillo no?)

e ||--5--555---5-555---7--777---7-777--8--888--8-888---7-777--7-777----||
B ||--5--555---5-555---7--777---7-777--8--888--8-888---7-777--7-777----||
G ||o-----------------------------------------------------------------o||
D ||o-----------------------------------------------------------------o||
A ||-------------------------------------------------------------------||
E ||-------------------------------------------------------------------||

                                       Am      G7      F7       E7
e ||-5--555--5-555---7--777---7-777-|--5-------3-------1--------0------||
B ||-5--555--5-555---7--777---7-777-|--5-------3-------1--------0------||
G ||--------------------------------|--5-------4-------2--------1------||
D ||--------------------------------|--7-------3-------1--------0------||
A ||--------------------------------|--7-------5-------3--------2------||
E ||--------------------------------|--5-------3-------1--------0------||

e ||---5----3----2----0------------||
B ||---5----3----2----0------------||
G ||-------------------------------||
D ||-------------------------------||
A ||-------------------------------||
E ||-------------------------------||


D5
A usted que esta en su casa 
      A5
Un consejo le doy
D5
Cierre las ventanas
          A5
´tranque bien el portón
D5
Pues en algún momento
       A5
Por delante o detrás
B5                    E5
Puede aparecer el tal león

Un león anda suelto en la calle
Calamidad igual nunca vi
Jamás tendrá problemas
Con su alimentación
              E7     A5     G7     F7  
Si se encuentra a mi hermanita por ahí
              E7     A5     G7     F7  
Si se encuentra a mi hermanita por ahí

Ya saben como tocar A5, D5, B5 y E5 verdad?

     E  A  D  G  B  E
A5   5  7  X  X  X  X  
D5   X  5  7  X  X  X
B5   7  9  X  X  X  X
E5   X  7  9  X  X  X


Al final toca varias veces las dos primeras cuerdas como en el principio del solo y terminas en Am.

SI ALGO ESTA MAL TRANSCRITO ES MERA COINCIDENCIA.

            
            
Suggest correction
Creating personal tab
Creating personal tab
You can edit any tab online and save it as your Personal.

You can edit, replace or remove any tab part or add personal notes – all changes will be seen only by you.

Personal tabs can be accessed anytime from any device, even offline.
Learn more »
Give kudos to tab author, rate the tab!
1 2 3 4 5
comments
print report bad tab
guest
Wanna post a correction for this tab? Suggest correction