Oops, an error
Loading. Please wait.

El Negro Cósmico tab

version 1
version 1

Whole song

Interactive

60 views 1 this week
no commentswrite comment
1 2 3 4 5
3 more votes to show rating
add to favorites
×
Save as Personal and add changes to this tab that will be seen only by you. Learn more ›
×
You can save this tab as Personal to edit and correct it or add notes. All changes will be seen only by you. Learn more »
launch autoscroll
font size
0
reset
how to read this tab
guitar tuner
edit
Autoscroll
slow
fast
+/-
esc
set tempo
stop
 

 
  esta es una de las canciones que mas me gusta esta bien 
  fregona y la saque batallando un poco por el distor que 
  uso marcovich en el segundo solo y lo saque lo mas que 
  le pude entender a la rola 

  intro es varias veces

 |---------------------------------------------------------|
 |---------------------------------------------------------|
 |---------5-7-7---------5-7-7---------5-7-7---------5-7-7-|
 |-5p2-4p2-------5p2-4p2-------5p2-4p2-------5p2-4p2-------|
 |---------------------------------------------------------|
 |---------------------------------------------------------|
  
  solo:1 
 |---------------------------------------|
 |---------------------------------------|
 |-----------------------------------7-5-|
 |-5/7-7---5-7-7-5-7-5---5-7-7-5-7-5-7-5-|
 |---------------------------------------|
 |---------------------------------------|

 |--------------------------------------------|
 |--------------------------------------------|
 |-----------------7/9-7------------------7-5-|
 |--7x-7x-5x-7x-5x---------7x-7x-5x-7x-5x-7-5-|
 |--------------------------------------------|
 |--------------------------------------------|

  solo:2
 |----------------------------------------------|
 |------------------15/17-20--15/17-20p17-------|
 |----------------------------------------19-17-|
 |-2-4-5-7---2-4-5------------------------------|
 |-0-2-3-5---0-2-3------------------------------|
 |----------------------------------------------|

 |----------------------------------------------|
 |---------------21^-21^------------------------|
 |-15/17-17-~19~---------~14~-------------------|
 |----------~19~---------~14~-12/14-14--17-19^--|
 |-----------------------~12~-------------------|
 |----------------------------------------------|

 |----------------------------------------------|
 |----------------------------------------------|
 |-19-17-19-17-15-17---19^-19^-19-17-~17~-~17~--|
 |-----------------------------------~17~-~17~--|
 |----------------------------------------------|
 |----------------------------------------------|

 |---------------------~20~-20-22^-22-20-~20~---|
 |-----------~19~-~22~--------------------------|
 |-~19~-~21~------------------------------------|
 |----------------------------------------------|
 |----------------------------------------------|
 |----------------------------------------------|

 outro:

 este final son dos guitarras al mismo tiempo

 gr:1
 |---------------------------------------------|
 |-13-12-13-12-13-12-13-12-13-12-13-12-13-12---|
 |---------------------------------------------|
 |---------------------------------------------|
 |---------------------------------------------|
 |---------------------------------------------|
 gr:2
 |---------------------------------------------------|
 |---------------------------------------------------|
 |---------------------------------------------------|
 |-5p2-4p2-4-5-5-5--5p2-4p2-4-5-5-5--5p2-4p2-4-5-5-5-|
 |---------------------------------------------------|
 |---------------------------------------------------|

 esta rola como en las demas que he sacado se la dedico 
 a mis amigos de aqui de tampico por lo usual no pongo
 nombres pero are una ecepción al jorge al oso a rogelio
 que tambien sube rolas aqui en atame y a cinthia
 cualquier duda o error escribanme

            
            
Suggest correction
Creating personal tab
Creating personal tab
You can edit any tab online and save it as your Personal.

You can edit, replace or remove any tab part or add personal notes – all changes will be seen only by you.

Personal tabs can be accessed anytime from any device, even offline.
Learn more »
Give kudos to tab author, rate the tab!
1 2 3 4 5
comments
print report bad tab
guest
Wanna post a correction for this tab? Suggest correction