Oops, an error
Loading. Please wait.

Estás Dormida tab

version 2
version 2

Whole song

Interactive

118 views 1 this week
no commentswrite comment
1 2 3 4 5
3 more votes to show rating
add to favorites
×
Save as Personal and add changes to this tab that will be seen only by you. Learn more ›
×
You can save this tab as Personal to edit and correct it or add notes. All changes will be seen only by you. Learn more »
launch autoscroll
font size
0
reset
how to read this tab
guitar tuner
edit
Autoscroll
slow
fast
+/-
esc
set tempo
stop
INTRO:
            B
E-----------------------------------------|
B-----------4--4---2--2--5--5--4--4-------| x3
G-----------4--4---4--4--4--4--4--4-------|

E          Esus           E
   Cada segundo sin tu piel
                          E--------------------------
                          B---------7--9--7----------
                          G-9--8--9---------9--8--6--
C#m
   me va secando la voz
E           Esus           E
   cada ladrido en tu pared
                          E--------------------------
                          B---------7--9--7----------
                          G-9--8--9---------9--8--6--
C#m
   va marchitando mi amor.

G#m                       F#m
   Y estoy buscándote a ciegas
G#m                    F#m
   en un sepulcro sin puertas.

F#m-G#m-A

A                               C#m
   Y aunque te escondas todo el día
          C
   la verdad
   B
   Yo se bien que estas dormida
A                             C#m
   con los recuerdos de otra vida
          C     B
   donde yo...  uuuu uuuu uuuu uuuu
            B
E-----------------------------------------|
B-----------4--4---2--2--5--5--4--4-------| x2
G-----------4--4---4--4--4--4--4--4-------|

E            Esus            E
   Los días pasan y aqui estoy
                             E--------------------------
                             B---------7--9--7----------
                             G-9--8--9---------9--8--6--
C#m
   junto a tu tumba sin sol
E            Esus          E
   si tu te vas, a dónde voy?
                           E--------------------------
                           B---------7--9--7----------
                           G-9--8--9---------9--8--6--

C#m
   no me obedecen mis pies.

G#m                       F#m
   Quieren que vaya al desierto
G#m                        F#m
   quieren que baje al infierno.

A                               C#m
   Y aunque te escondas todo el día
          C
   la verdad
   B
   Yo se bien que estas dormida
A                             C#m
   con los recuerdos de otra vida
          C     B
   donde yo...  uuuu uuuu uuuu uuuu
                B
              E-------------------------------|
              B-4--4---2--2--6--6--4--4-------| x2
              G-4--4---4--4--4--4--4--4-------|
Solo de sax!

A                               C#m
   Y aunque te escondas todo el día
          C
   la verdad
   B
   Yo se bien que estas dormida
A                             C#m
   con los recuerdos de otra vida
          C     B
   donde yo...  uuuu uuuu uuuu uuuu
            B
E-----------------------------------------|
B-----------4--4---2--2--5--5--4--4-------| x8
G-----------4--4---4--4--4--4--4--4-------|
 Y termina en C#m
     EbGDAE
Esus 002220
Enviado por Daniel Mendoza Griz =D

            
            
Suggest correction
Creating personal tab
Creating personal tab
You can edit any tab online and save it as your Personal.

You can edit, replace or remove any tab part or add personal notes – all changes will be seen only by you.

Personal tabs can be accessed anytime from any device, even offline.
Learn more »
Give kudos to tab author, rate the tab!
1 2 3 4 5
comments
print report bad tab
guest
Wanna post a correction for this tab? Suggest correction