Oops, an error
Loading. Please wait.

Perdí Mi Ojo De Venado bass

version 1
version 1

Whole song

Interactive

377 views 1 this week
no commentswrite comment
1 2 3 4 5
2 more votes to show rating
add to favorites
×
Save as Personal and add changes to this tab that will be seen only by you. Learn more ›
×
You can save this tab as Personal to edit and correct it or add notes. All changes will be seen only by you. Learn more »
launch autoscroll
font size
0
reset
guitar tuner
edit
Autoscroll
slow
fast
+/-
esc
set tempo
stop
Esta es una canción interesante y un poco complicada
Tiene varios adornos pero están muy padres
Hechos por un maestro del bajo Sabo Romo

Entra sola la guitarra y cuando termina de hacer
el remate la bataca entra el bajo con lo siguiente
Riff1:
 |    E     |    F   |     D       |
G|----------|--------|-------------|
D|----------|--------|------------3|
A|----------|--------|5/777-5-3-5--|
E|0000000000|11111111|-------------|

Se repite 4 veces y en la cuarta te quedas en el Fa mas grave
hasta que entra el Riff2:
 |  D  |  E   |      F#m     | x4
G|-----|------|--------------|
D|-----|------|--------------|
A|5?5-5|------|--------------|
E|-----|0--0-0|2--2-2--2--2-2|

En el Pre-coro entra con el Riff3:
 |      A     |      F#m     | x3
G|------------|--------------|
D|------------|--------------|
A|------------|---------3-4-5|
E|55-55-55-542|22-22-22------|

Y remata de la siguiente forma
 |      A     |  F#m | G   A |
G|------------|------|-------|
D|------------|------|-------|
A|------------|------|-------|
E|55-55-55-542|22-22-|-3---5-|

Y luego va el coro Riff4:
 |        E       |      F         | x3
G|----------------|----------------|
D|----------------|----------------|
A|----------------|----------------|
E|0--0-0--0--0-0-3|1--1-1--1--1-1-3|

Luego se repite pero cambia el Fa
 |      E       |      F     |
G|--------------|-------------|
D|--------------|3-2-0--------|
A|--------------|------3-2-0--|
E|0--0-0--0--0-0|------------3|
Y regresa al Riff1 solo se tocan las 2 ultimas veces
Luego se toca el Riff2B:
 |  D  |  E   |      F#m     |     D     |  E   |      F#m     |
G|-----|------|--------------|-----------|------|--------------|
D|-----|------|--------------|0-2-4-2----|------|--------------|
A|5?5-5|------|--------------|--------4-2|------|--------------|
E|-----|0--0-0|2--2-2--2--2-2|-----------|0--0-0|2--2-2--2--2-2|

Y luego entra el Riff3B que se toca:
 |      A     |      F#m     |      A     |      F#m     | 
G|------------|--------------|------------|-------2---2-|
D|------------|--------------|------------|------4-434-3|
A|------------|---------3-4-5|------------|-------------|
E|55-55-55-542|22-22-22------|55-55-55-542|22-22--------|


 |      A     |     F#m      |      A     |  F#m | G   A |
G|------------|--------------|------------|------|-------|
D|------------|--------------|------------|------|-------|
A|------------|---------3-4-5|------------|------|-------|
E|55-55-55-542|22-22-22------|55-55-55-542|22-22-|-3---5-|

Luego va al coro:
 |    E   |    G    |        F       | x3
G|--------|---------|----------------|
D|--------|---------|----------------|
A|--------|---------|----------------|
E|0--0-0-3|-3--3-3-3|1--1-1--1--1-1-3|

 |   E    |    G    |        F            |
G|--------|---------|---------------------|
D|--------|---------|33-22-00-------------|
A|--------|---------|--------33-22-00-----|
E|0--0-0-3|-3--3-3-3|-----------------3/0-|

Aquí entra el solo de bataca y después del teclado entra el bajo con:
 |      F       |
G|--------------|
D|--------------|
A|--------------| va aumentando de volumen
E|11111111111111|

Y luego va:
 |    D   |    E   |        F#m      | x4
G|--------|--------|-----------------|
D|--------|--------|-----------------|
A|55555555|--------|-----------------|
E|--------|00000000|22222222222222222|

Y luego un remate para entrar al coro
 | G  A  |
G|-------|
D|-------|
A|-------|
E|-33-55-|
Y el coro se toca de la siguiente manera:
 |   E    |    G    |      F        |   E   |    G    |      F        |
G|--------|---------|---------------|-------|---------|---------------|
D|--------|---------|-------?3?3-3-5|-------|---------|--------2-3-4-5|
A|--------|---------|---------------|-------|---------|---------------|
E|0--0-0-3|-3--3-3-3|1--1-1---------|0?0-0-3|-3--3-3-3|1--1-1-0-1-2-3-|

 |    E   |    G    |      F        |   E   |    G    |         F       |
G|--------|---------|---------------|-------|---------|-----------------|
D|--------|---------|--------3?3-3-5|-------|---------|33-22-00---------|
A|--------|---------|---------------|-------|---------|---------33-22-0-|
E|0--0-0-3|-3--3-3-3|1--1-1---------|0?0-0-3|-3--3-3-3|----------------3|

 |   E    |    G    |      F       |   E   |    G    |      F        |
G|--------|---------|--------------|-------|---------|---------------|
D|--------|---------|-------3?3-3-5|-------|---------|--------2-3-4-5|
A|--------|---------|--------------|-------|---------|---------------|
E|0--0-0-3|-3--3-3-3|1--1-1--------|0?0-0-3|-3--3-3-3|1--1-1-0-1-2-3-|

 |    E   |    G    |      F        |   E   |    G    |         F           |
G|--------|---------|---------------|-------|---------|---------------------|
D|--------|---------|--------3?3-3-5|-------|---------|---------------------|
A|--------|---------|---------------|-------|---------|------00-22-33-55----|
E|0--0-0-3|-3--3-3-3|1--1-1---------|0?0-0-3|-3--3-3-3|-11-22------------00-|

Bueno eso es todo agarren bien los tiempos
Y escuchen bien los cambios

Recuerden que la música es cultura practíquenla y propáguenla

            
            
Suggest correction
Creating personal tab
Creating personal tab
You can edit any tab online and save it as your Personal.

You can edit, replace or remove any tab part or add personal notes – all changes will be seen only by you.

Personal tabs can be accessed anytime from any device, even offline.
Learn more »
Give kudos to tab author, rate the tab!
1 2 3 4 5
comments
print report bad tab
guest
Wanna post a correction for this tab? Suggest correction