Oops, an error
Loading. Please wait.

A Través De La Ventana tab

version 2
version 2

Whole song

95 views 1 this week
no commentswrite comment
1 2 3 4 5
3 more votes to show rating
add to favorites
×
Save as Personal and add changes to this tab that will be seen only by you. Learn more ›
×
You can save this tab as Personal to edit and correct it or add notes. All changes will be seen only by you. Learn more »
launch autoscroll
font size
0
reset
how to read this tab
guitar tuner
edit
Autoscroll
slow
fast
+/-
esc
set tempo
stop
Esta rola primera que me aprendi
Espero que les guste, esta CHINGONA

C-Em-F-G X2

C             Em
 Mirando atraves de la ventana
F          G
 El cielo gris
C             Em
 Recuerdo tu bella sonrisa
       F                      G
 Y quisiera que estuvieras aquí
C             Em
 Recuerdo las tardes lluviosas
       F           G
 Que soliamos caminar
C          Em
 Tomados de la mano
       F            G
 Y enseñandonos a amar

F         G
 Pero eso ya paso
F            G
 Y nunca mas volvera ser
F             G
 Porque tu te fuiste
                  C Em
 Te olvidaste de mi-i
    F          G
 De mi, de mi amor


SOLO  C-Em-F-G X5

E-----------------------------
A-----------------------------
D-------------7-5-5h7-7-5h7-5-
G-4h5-5-5-5h4-----------------
B-----------------------------
e-----------------------------

E--------------------------------
A--------------------------------
D-------------7-5-5h7-7--7-5-7-5-
G-4h5-5-5-5h4--------------------
B--------------------------------
e--------------------------------

E------------------------------------------------------
A------------------------------------------------------
D------------------------------------------------------  X2
G-4h5--5-7-9--7-9-10--9-10-10h11h10-9h10h9-7h9h7-5h7h5-
B------------------------------------------------------
e------------------------------------------------------

E-----------------------------
A-----------------------------
D-------------7-5-5h7-7-5h7-5-
G-4h5-5-5-5h4-----------------
B-----------------------------
e-----------------------------

E---------------------------------
A---------------------------------
D-------------7-5-5h7-7--7-5-7-5~~
G-4h5-5-5-5h4---------------------
B---------------------------------
e---------------------------------


Cuando tu te fuiste de mi

Me quise morir

Pero ahora comprendo

Que a mi lado no serias feliz

Recuerdo las noches

En que haciamos el amor

Tu cuerpo desnudo

Invadiendome con su pasion

F         G
 Pero eso ya paso
F            G
 Y nunca mas volvera ser
F             G
 Porque tu te fuiste
                  C Em
 Te olvidaste de mi-i
    F          G    C Em
 De mi, de mi amor
    F          G
 De mi, oh mi amor

            
            
Suggest correction
Creating personal tab
Creating personal tab
You can edit any tab online and save it as your Personal.

You can edit, replace or remove any tab part or add personal notes – all changes will be seen only by you.

Personal tabs can be accessed anytime from any device, even offline.
Learn more »
Give kudos to tab author, rate the tab!
1 2 3 4 5
comments
print report bad tab
guest
Wanna post a correction for this tab? Suggest correction