Oops, an error
Loading. Please wait.

Sueños De Infancia tab

version 2
version 2

Whole song

45 views 1 this week
no commentswrite comment
1 2 3 4 5
3 more votes to show rating
add to favorites
×
Save as Personal and add changes to this tab that will be seen only by you. Learn more ›
×
You can save this tab as Personal to edit and correct it or add notes. All changes will be seen only by you. Learn more »
launch autoscroll
font size
0
reset
how to read this tab
guitar tuner
edit
Autoscroll
slow
fast
+/-
esc
set tempo
stop
Am-Dm-G-C C-Bm F-Dm-E-Am F-E X2


INTRO 1
G-------------------------------------------
B-13-10--13-10--13-10-13-10--13-10--13-10---
e-------------------------------------------

G-------------------------------------------
B-------------------------------------------
e-13-10--13-10--13-10-13-10--13-10--13-10---

G-------------------------------------------
B-11-8--11-8--11-8-11-8--11-8--11-8---------
e-------------------------------------------

G-------------------------------------------
B-------------------------------------------
e-11-8--11-8--11-8-11-8--11-8--11-8---------

G-------------------------------------------
B-------------------------------------------
e-16-13--16-13--16-13-16-13--16-13--16-13---

G-------------------------------------------
B-------------------------------------------
e-13-10--13-10--13-10-13-10--13-10--13-10---

G----------------------------------------------
B----------------------------------------------
e-15-12--15-12-15-12--12-12--10-10--9-9--7-7-5-

INTRO 2
G-------------------------------------------
B--8/10-10--12-13-12-10-6--6/8-8-10-12-10-8-
e-------------------------------------------

G------------------------------------------
B-6/5-3-3/5--------------------------------
e------------------------------------------

G-3/5-5--5-7-9-7-5-7-9-7--5-7-5-7-5-7-
B-------------------------------------
e-------------------------------------

G-9/7-7/5-5/4-4/2-2-
B-------------------
e-------------------

    Am                    G
La noche cubre ya con su mágico color
     Am                      G
Las luces de la ciudad iluminando el callejón
  F               E                 Am
Y tu llegas al faro de aquella esquina
        F           E               Am  F-E
En tus labios un cigarro y una sonrisa

    Am                        Dm
El frió te sorprende en la mañana
   G                            C  C-Bm
Envuelta en la tristeza de una cama
 F               E                 Am
Vendiendo tus caricias pasas la vida
      F                         E
Esperando algún día sanar ya tu herida

          Am
Dime que paso dime que sucedió
                      Dm
Con tus sueños de infancia
                 G
Dime si alguien robo tu inocencia
                     C   C-Bm
Dejo solo pena en tu alma
                   F                   Am
Porque tienen tus ojos esa triste mirada
                F                 E
Porque buscas amor sola en la madrugada

INTRO 2

En la 2da vuelta son casi la misma tablatura
nada con un poco mas de filing y mas rápido
en la ultima parte de todos modos ahí improvisen
o si sacan el chido lo pasan


          Am
Dime que paso dime que sucedió
                      Dm
Con tus sueños de infancia
                 G
Dime si alguien robo tu inocencia
                     C   C-Bm
Dejo solo pena en tu alma
                   F                   Am
Porque tienen tus ojos esa triste mirada
                F                 E
Porque buscas amor sola en la madrugada?????X2

Am-Dm-G-C C-Bm F-Dm-E-Am F-E-Am INTRO1

Que paso oh oh ah

Que mato tu alegría ye ye eh

            
            
Suggest correction
Creating personal tab
Creating personal tab
You can edit any tab online and save it as your Personal.

You can edit, replace or remove any tab part or add personal notes – all changes will be seen only by you.

Personal tabs can be accessed anytime from any device, even offline.
Learn more »
Give kudos to tab author, rate the tab!
1 2 3 4 5
comments
print report bad tab
guest
Wanna post a correction for this tab? Suggest correction