Oops, an error
Loading. Please wait.

Quereme Así tab

120 views 1 this week
no commentswrite comment
1 2 3 4 5
3 more votes to show rating
add to favorites
×
Save as Personal and add changes to this tab that will be seen only by you. Learn more ›
×
You can save this tab as Personal to edit and correct it or add notes. All changes will be seen only by you. Learn more »
launch autoscroll
font size
0
reset
how to read this tab
guitar tuner
edit
Autoscroll
slow
fast
+/-
esc
set tempo
stop
Bueno esta es la cancion de quiereme asi de los caligaris con todo
y las partes de sax
e)-------------------------------------------------
B)----2-5-2--------------2-3-2---------2-3-7-3-2------------2--------
G)2-4-------4-2------2-4-------4-2-4-4-----------4-----2-4----4-2-4-2-
D)----------------4--------------------------------4-4---------------


LA                    FA#m
Yo sé que no hago todo bien
                        SIm
que me extrañas y no me ves
                        MI
perdón me cuesta ser perfecto
LA                       FA#m
Que nunca estoy cuando lloras
                          SIm
no me doy cuenta si estas mal
                  MI
o si necesitas un beso


DO#                FA#m
Pero yo te lo dije antes
SI                    MI
"Soy un ejemplo del desastre"


LA                       FA#m
Quizás yo nunca llegue a ser lo que buscas

SIm                      MI
quereme asi yo a vos te quiero


Intermedio:LA - FA#m - SIm - MI  (x2)


LA                     FA#m
De tu cumpleaños me olvidé
                        SIm
no sé que día cumplimos mes
                       MI
yo nunca te regalo el cielo
LA                     FA#m
Es que me cuesta no ser yo
                         SIm
y andar pendiente de los dos
                      MI
suena egoísta y es sincero


DO#              FA#m
Pero yo te lo dije antes
SI                     MI
"Soy un ejemplo del desastre"


LA                       FA#m
Quizás yo nunca llegue a ser lo que buscas
Esta es asi"QUISAS YO NUNCA LLEGUE A SER LO QUE BUSCAS"
e)-------------------------------------------------------------
B)----2-5-2----------------------------------------------------
G)2-4-------4-2-1-----1-2--------------------------------------
D)----------------4-------4------------------------------------
SIm                      MI
quereme asi yo a vos te quiero
Esta es asi"QUISAS YO NUNCA LLEGUE A SER LO QUE BUSCAS"
e)-------------------------------------------------------------
B)----2-5-2----------------------------------------------------
G)2-4-------4-2-1-----1-2--------------------------------------
D)----------------4-------4------------------------------------
LA                   FA#m
Te juro intento pero sale todo mal
Esta es asi"QUISAS YO NUNCA LLEGUE A SER LO QUE BUSCAS"
e)-------------------------------------------------------------
B)----2-5-2----------------------------------------------------
G)2-4-------4-2-1-----1-2--------------------------------------
D)----------------4-------4------------------------------------
SIm                      MI
quereme asi yo a vos te quiero
Esta es asi"QUISAS YO NUNCA LLEGUE A SER LO QUE BUSCAS"
e)-------------------------------------------------------------
B)----2-5-2----------------------------------------------------
G)2-4-------4-2-1-----1-2--------------------------------------
D)----------------4-------4------------------------------------

            
            
Suggest correction
Creating personal tab
Creating personal tab
You can edit any tab online and save it as your Personal.

You can edit, replace or remove any tab part or add personal notes – all changes will be seen only by you.

Personal tabs can be accessed anytime from any device, even offline.
Learn more »
Give kudos to tab author, rate the tab!
1 2 3 4 5
comments
print report bad tab
guest
Wanna post a correction for this tab? Suggest correction