Oops, an error
Loading. Please wait.

Tú Sólo Tú chords

version 2
version 2

Whole song

37 views 1 this week
no commentswrite comment
1 2 3 4 5
3 more votes to show rating
add to favorites
×
Save as Personal and add changes to this tab that will be seen only by you. Learn more ›
×
You can save this tab as Personal to edit and correct it or add notes. All changes will be seen only by you. Learn more »
launch autoscroll
font size
0
reset
transpose
0
reset
display chords
guitar tuner
edit
Autoscroll
slow
fast
+/-
esc
set tempo
stop
Strumming
There is no strumming pattern for this song yet. and get +5 IQ
ey!!!
en esta rola no es necesario
tokarla kon cejilla ni capotraste
(para aquellos que no cuentan con un capotraste)
se oye bien komo la escribo en seguida...
(pero si tiene capotraste, mas abajo
les pongo las notas que se escucha mejor con el capo)
se toca en A(LA Mayor).
esta rolita tiene su truco
si bien saben o han visto el video
Paul toca un intrumento llamado ukulele
y la introduccion en una guitarra clasica,
para darle el efecto de este sonido del ukulele
se toca como se muestra aki abajo,
y cuando canta Patricia
se toca los acordes basicos
o acordes normales en la guitarra

numeracion de los dedos en las cuerdas
1 dedo indice
2 dedo medio
3 dedo anular
4 dedo meñike

INTRO
A,C#,F#m,D (x3)
a continuacion los acordes ke se deben tocar en la introduccion

              A(LA Mayor)
    7     6     5     4     3     2     1
x|-----|-----|-----|-----|-----|-----|-----| E
 |--3--|-----|-----|-----|-----|-----|-----| A
 |--4--|-----|-----|-----|-----|-----|-----| D
 |-----|--2--|-----|-----|-----|-----|-----| G
 |-----|-----|--1--|-----|-----|-----|-----| B
 |-----|-----|--1--|-----|-----|-----|-----| e

              C#(DO sostenido)
    7     6     5     4     3     2     1
x|-----|-----|-----|-----|-----|-----|-----| E
x|-----|-----|-----|-----|-----|-----|-----| A
 |-----|--2--|-----|-----|-----|-----|-----| D
 |-----|--3--|-----|-----|-----|-----|-----| G
 |-----|--4--|-----|-----|-----|-----|-----| B
 |-----|-----|-----|--1--|-----|-----|-----| e

             F#m(FA sostenida menor)
    7     6     5     4     3     2     1
x|-----|-----|-----|-----|-----|-----|-----| E
x|-----|-----|-----|-----|-----|-----|-----| A
 |--3--|-----|-----|-----|-----|-----|-----| D
 |-----|--2--|-----|-----|-----|-----|-----| G
 |--4--|-----|-----|-----|-----|-----|-----| B
 |-----|-----|--1--|-----|-----|-----|-----| e

             D(RE Mayor)
    7     6     5     4     3     2     1
x|-----|-----|-----|-----|-----|-----|-----| E
x|-----|-----|-----|-----|-----|-----|-----| A
 |--2--|-----|-----|-----|-----|-----|-----| D
 |--3--|-----|-----|-----|-----|-----|-----| G
 |--4--|-----|-----|-----|-----|-----|-----| B
 |-----|-----|--1--|-----|-----|-----|-----| e


///notas normales///
A           E           F#m
Cuando la azúcar sabe a sal,
          C#          D
busco tu olor en el sofa,
         A              E
y me sorprendo hablando en plural.

A            E             F#m
Llueve en la calle y el cristal,
          C#           D
llora empañado si no estas
         A                     E
escribo tu nombre con un dedo sin pesar.

D          A
Quiero que sepas
    C#           F#m   E
que no puedo ocultar,
D           A
palabras secretas
              E
te tengo que confesar.

A       C#
Tu,solo tu,
      F#m          D            A       E
haces que todo mi mundo siga en pie
              A     E
con solo mirarme.
A       C#
Tu,solo tu,
      F#m         D             A
haces que la ilusion vuelva a nacer
D            E           A    E
daba por perdido el corazón.
D               E          A
Tu lo has rescatado del cajón.

///intoduccion///
A,C#,F#m,D (x2)

A      E            F#m
Acurrucada al despertar
             C#          D
sueño que estas aquí detras
                 A
viendo pelis de kubrick
          E
leyendo a kerouac.

A          E
Suena el telefono
     F#m          C#
y quizas oigo tu voz
            D
¿qué tal estas?
           A            E
Y mil mariposas vuelan sin parar.

D          A
Quiero que sepas
    C#           F#m   E
que no puedo ocultar,
D           A
palabras secretas
              E
te tengo que confesar.

A       C#
Tu,solo tu,
      F#m          D            A       E
haces que todo mi mundo siga en pie
              A     E
con solo mirarme.
A       C#
Tu,solo tu,
      F#m         D              A
haces que la ilusion vuelva a nacer
D            E           A    E
daba por perdido el corazón.
D               E          A
Tu lo has rescatado del cajón.

///notas normales///
A,C#,F#m,D (x4)

D           E           A
Iba a la deriva y sin timón.

///////////////////////////////////////////////////////////////////

a continuacion les pongo las notas
para aquellos que tienen capotraste...
el capotraste se koloka en el 2do(segundo) traste
y lo puse markado(el kapotraste) kon doble linea vertical

capotraste  ||

INTRO
G,B,Em,C (x3)
a continuacion los acordes ke se deben tocar en la introduccion

              G(Sol mayor)
    5     4     3     2     1
x|-----|-----|-----|-----|-----|| E
 |--3--|-----|-----|-----|-----|| A
 |--4--|-----|-----|-----|-----|| D
 |-----|--2--|-----|-----|-----|| G
 |-----|-----|--1--|-----|-----|| B
 |-----|-----|--1--|-----|-----|| e

              B(Si mayor)
    5     4     3     2     1
x|-----|-----|-----|-----|-----|| E
x|-----|-----|-----|-----|-----|| A
 |-----|--2--|-----|-----|-----|| D
 |-----|--3--|-----|-----|-----|| G
 |-----|--4--|-----|-----|-----|| B
 |-----|-----|-----|--1--|-----|| e

             Em(Mi menor)
    5     4     3     2     1
x|-----|-----|-----|-----|-----|| E
x|-----|-----|-----|-----|-----|| A
 |--3--|-----|-----|-----|-----|| D
 |-----|--2--|-----|-----|-----|| G
 |--4--|-----|-----|-----|-----|| B
 |-----|-----|--1--|-----|-----|| e

             C(Do Mayor)
    5     4     3     2     1
x|-----|-----|-----|-----|-----|| E
x|-----|-----|-----|-----|-----|| A
 |--2--|-----|-----|-----|-----|| D
 |--3--|-----|-----|-----|-----|| G
 |--4--|-----|-----|-----|-----|| B
 |-----|-----|--1--|-----|-----|| e


a continuacion agrego la nota C(Do mayor)
y Em(Mi menor) para darle un mejor sonido
a la rola... las demas notas son las normales

      C(Do mayor)
   3     2     1
|-----|-----|-----|| E
|--3--|-----|-----|| A
|-----|--2--|-----|| D
|-----|-----|-----|| G
|-----|-----|--1--|| B
|--4--|-----|-----|| e

      Em(Mi menor)
   3     2     1
|-----|-----|-----|| E
|-----|--1--|-----|| A
|-----|--2--|-----|| D
|-----|-----|-----|| G
|-----|-----|-----|| B
|--4--|-----|-----|| e


///notas con capotraste///
G           D           Em
Cuando la azúcar sabe a sal,
          B           C
busco tu olor en el sofa,
         G              D
y me sorprendo hablando en plural.

G            D             Em
Llueve en la calle y el cristal,
          B            C
llora empañado si no estas
         G                     D
escribo tu nombre con un dedo sin pesar.

C          G
Quiero que sepas
    B           Em     D
que no puedo ocultar,
C           G
palabras secretas
              D
te tengo que confesar.

G       B
Tu,solo tu,
      Em           C            G       D
haces que todo mi mundo siga en pie
              G     D
con solo mirarme.
G       B
Tu,solo tu,
      Em          C             G
haces que la ilusion vuelva a nacer
C            D           G    D
daba por perdido el corazón.
C               D          G
Tu lo has rescatado del cajón.

///intoduccion///
G,B,Em,C (x2)

G      D            Em
Acurrucada al despertar
             B          C
sueño que estas aquí detras
                 G
viendo pelis de kubrick
          D
leyendo a kerouac.

G          D
Suena el telefono
     Em           B
y quizas oigo tu voz
            C
¿qué tal estas?
           G            D
Y mil mariposas vuelan sin parar.

C          G
Quiero que sepas
    B           Em    D
que no puedo ocultar,
C           G
palabras secretas
              D
te tengo que confesar.

G       B
Tu,solo tu,
      Em           C            G       D
haces que todo mi mundo siga en pie
              G     D
con solo mirarme.
G       B
Tu,solo tu,
      Em          C              G
haces que la ilusion vuelva a nacer
C            D           G    D
daba por perdido el corazón.
C               D          G
Tu lo has rescatado del cajón.

///notas normales///
G,B,Em,C (x4)

C           D           G
Iba a la deriva y sin timón.


saludos a la vocalista de calle paris, Patricia
que me enamora siempre mas y mas con esta rolita...

            
            
Suggest correction
Creating personal tab
Creating personal tab
You can edit any tab online and save it as your Personal.

You can edit, replace or remove any tab part or add personal notes – all changes will be seen only by you.

Personal tabs can be accessed anytime from any device, even offline.
Learn more »
Give kudos to tab author, rate the tab!
1 2 3 4 5
comments
print report bad tab
guest
Wanna post a correction for this tab? Suggest correction