Oops, an error
Loading. Please wait.

Formas De Amor tab

by Caló
41 views 1 this week
no commentswrite comment
1 2 3 4 5
3 more votes to show rating
add to favorites
×
Save as Personal and add changes to this tab that will be seen only by you. Learn more ›
×
You can save this tab as Personal to edit and correct it or add notes. All changes will be seen only by you. Learn more »
launch autoscroll
font size
0
reset
how to read this tab
guitar tuner
edit
Autoscroll
slow
fast
+/-
esc
set tempo
stop
Hola, dios les bendiga. Aqui esta la parte de piano completa.
Alguien me mando un mail pidiendome que hisiera toda la parte del piano y bueno,
aqui esta total y completo.  Calo si que es uno de mis grupos favoritos de mexicano.
Bueno, a lo prometido porque ya mande mi otro tab de esta cancion pero solamente era
el intro pero ahora esta completo.  Gracias, disfruten.

Intro(0:10 sec.)
e|------------------------------------------|
b|-9~---7-----------7-9-7--------7-7---7~---|
g|--------9-6~----9-------8~---8-----9------|
d|------------------------------------------|
a|------------------------------------------|
E|------------------------------------------|

e|------------------------------------------|
b|-9~--7-----------7-9-7--------7-7---------|
g|-------9-6~----9-------8~---8-----9-8-6~--|
d|------------------------------------------|
a|------------------------------------------|
E|------------------------------------------|

O lo mismo pueden hacer esto de aqui abajo.
(0:10 sec.)
e|------------------------------------------|
b|-9~-7-5-2~---5-7-9-7-4~---4-7-7-5-7~------|
g|------------------------------------------|
d|------------------------------------------|
a|------------------------------------------|
E|------------------------------------------|

e|------------------------------------------|
b|-9~-7-5-2~---5-7-9-7-4~---4-7-7-5-4-2~----|
g|------------------------------------------|
d|------------------------------------------|
a|------------------------------------------|
E|------------------------------------------|


..que ponga a pie.....en ellos..
(0:45 sec.)
e|--------7-5-4------------7-5-4---------|
b|-9~--9---------7-9~---9---------7-5~---|
g|---------------------------------------|
d|---------------------------------------|
a|---------------------------------------|
E|---------------------------------------|

e|-----------------------------|
b|-------7-------------7--9~---|
g|-6--9-----6~---6--9----------|
d|-----------------------------|
a|-----------------------------|
E|-----------------------------|

 Es basicamente lo mismo pero con una variacion pequeña.
(1:30 min.)
e|-------------7-5-4----------7-5-4--------|
b|-----7-9~--9-------7-9~---9-------7-5~---|
g|-8-9-------------------------------------|
d|-----------------------------------------|
a|-----------------------------------------|
E|-----------------------------------------|

e|-----------------------------|
b|-------7-------------7--9~---|
g|-6--9-----6~---6--9----------|
d|-----------------------------|
a|-----------------------------|
E|-----------------------------|

Este se podria llamar el 'Solo' del piano.
(2:35 min)
e|-------------------21-23~--21~------21-23-23~---21~---|
b|-------19-21-23-24-------------21~--------------------|
g|-19-21------------------------------------------------|
d|------------------------------------------------------|
a|------------------------------------------------------|
E|------------------------------------------------------|

(2:41 min.)
e|----21-23-21------------19---------21-23-23-24-25-26---|
b|-21----------21~--19-21----19~--24---------------------|
g|-------------------------------------------------------|
d|-------------------------------------------------------|(me la rife...jajaja)
a|-------------------------------------------------------|
E|-------------------------------------------------------|

(2:48)              (2:51)
e|-21-24-23-19-21-16~------21~-21----------------21~-21---|
b|----------------------24-----------19~-19---24----------|
g|--------------------------------21----------------------|
d|--------------------------------------------------------|
a|--------------------------------------------------------|
E|--------------------------------------------------------|

(2:55 min.)
e|-----------------------|
b|----19~-21-17-16~--(14)| El (14) aqui es opcional.
g|-21--------------------|
d|-----------------------|
a|-----------------------|
E|-----------------------|


Formas de amor........
(2:59)                        (3:04)
e|----22-21-19-17~--|         e|----22-21-19-24~-22-21-22~--|
b|-19---------------|         b|-19-------------------------|
g|------------------|         g|----------------------------|
d|------------------|         d|----------------------------|
a|------------------|         a|----------------------------|
E|------------------|         E|----------------------------|
Y se vuelve a repetir lo mismo pero con una pequeña variacion.
Y haci se va esta cancion hasta que termina.


Bueno, en la parte donde se llega a e-21-23-23-24-25-26....  Pues mi guitarra
tiene 24 trastes, entonces es mas facil.....no tienes que doblar la
cuerda, se pueden llegar a esas notas sin doblar. Solo pasate a las notas
aunque no tengas esos trastes. Ojala y me entiendan. Bueno este fue mi tab
del piano hecho para guitarra, ojala y les sirbe de algo.
Es todo, gracias.  Le puse los minutos arriba para que no se confundieran.
Soy el ex 'Jaguar Solitario 1',  si quieren el solo #2 de Miercoles de ceniza
acargo de caifanes, lo pondre muy pronto. Ah si, alguna peticion o lo que sea
a mi correro,  diosjaguar666@ me llamo jose. bye.

            
            
Suggest correction
Creating personal tab
Creating personal tab
You can edit any tab online and save it as your Personal.

You can edit, replace or remove any tab part or add personal notes – all changes will be seen only by you.

Personal tabs can be accessed anytime from any device, even offline.
Learn more »
Give kudos to tab author, rate the tab!
1 2 3 4 5
comments
print report bad tab
guest
Wanna post a correction for this tab? Suggest correction