Oops, an error
Loading. Please wait.

Satánica tab

20 views 1 this week
no commentswrite comment
1 2 3 4 5
3 more votes to show rating
add to favorites
×
Save as Personal and add changes to this tab that will be seen only by you. Learn more ›
×
You can save this tab as Personal to edit and correct it or add notes. All changes will be seen only by you. Learn more »
launch autoscroll
font size
0
reset
how to read this tab
guitar tuner
edit
Autoscroll
slow
fast
+/-
esc
set tempo
stop
MI5
------------------------
------------------------  |
------------------------  |
--2-2-------------------  | 18 veces
--2-2-------------------  | dejar sonar cada vez
--0-0------------------- /

despues hace unos punteos

------------------------
---------8--------------  |
-77-99-7---9------------  | 2 veces
------------------------  |
------------------------  |
------------------------ /

-----------------------------------------------
------------------8---------------------8-10---  | 6 veces xD si mal
--11-11-9-11-9-11--11-9--11-11-9-11-9-11-------  | no lo recuerdo
-----------------------------------------------  |
-----------------------------------------------  |
----------------------------------------------- /

SKA

Mim ReM con distorcion

boropo?..

Violenta trampa
LA de esperar
que nada nuevo
vuelva a su lugar.
Maldita trampa
LA de mentir
golpes azules
que hacen sufrir.

LAm
Y la sangre
que sale de tus venas
no tiene nombre
no tiene emblemas.
Y tu cuerpo
tirado en la vereda
a nadie importa

SIm con cortes

a nadie quema.

MIm RE 
boropo?..

Violenta trampa
LA de esconder
todos los votos
fueron ayer.
Sangrienta trampa
te han metido
ya no se sale
esta prohibido.

distorcion mi5
----9-----------
----10^^--------
----------------
----------------
----------------
----------------

Digo golpes azules, no, no, no,
y la sangre de tus venas, no, no, no,
digo votos robados, no, no, no,
y te digo lo que dicen. no, no, no,

LAm
Y la sangre
que sale de tus venas
no tiene nombre
no tiene emblemas.
Y tu cuerpo
tirado en la vereda
a nadie importa

SIm con cortes

a nadie quema.

-----------------------------------------------
------------------8---------------------8-10---  | 2 veces xD
--11-11-9-11-9-11--11-9--11-11-9-11-9-11-------  |
-----------------------------------------------  |
-----------------------------------------------  |
----------------------------------------------- /

SKa
MIm RE 

boropo?..

distorcion mi5
----9-----------
----10^^--------
----------------
----------------
----------------
----------------

Digo golpes azules, no, no, no,
y la sangre de tus venas, no, no, no,
digo votos robados, no, no, no,
y te digo lo que dicen. no, no, no,

LAm
Y la sangre
que sale de tus venas
no tiene nombre
no tiene emblemas.
y tu cuerpo
tirado en la vereda
a nadie importa

SIm con cortes

a nadie quemas


vientos
Outro
---------------------------------------------------------------------
--12-10-8-7---7-8--12-10-8-7---7-8***-7-7-8-12-10--10-8-7----77------
------------9----------------9----------------------------7-9--9-----
---------------------------------------------------------------------
---------------------------------------------------------------------
---------------------------------------------------------------------

puse 3 asteriscos por k se vuelve a tokar eso, osea hasta ahi
 cambia aka

---------------------------------------------------------------------
-10-8-7---13-17------------------------------------------------------
--------9------------------------------------------------------------
---------------------------------------------------------------------
---------------------------------------------------------------------
---------------------------------------------------------------------

Fin
dudas sugerencias ferchola_06@ :P

Sugerencias
escuchar el tema para terminar de entender lo k esribi :)
acordes
  MIm      RE       LAm      SIm
--7----  --5---   ---5---   --7----
--6----  --7---   ---5---   --7----
--9----  --7---   ---5---   --7----
--9----  --7---   ---7---   --9----
--7----  --5---   ---7---   --9----
-------  ------   ---5---   --7----

            
            
Suggest correction
Creating personal tab
Creating personal tab
You can edit any tab online and save it as your Personal.

You can edit, replace or remove any tab part or add personal notes – all changes will be seen only by you.

Personal tabs can be accessed anytime from any device, even offline.
Learn more »
Give kudos to tab author, rate the tab!
1 2 3 4 5
comments
print report bad tab
guest
Wanna post a correction for this tab? Suggest correction