Oops, an error
Loading. Please wait.

Como El Agua chords

version 2
version 2

Whole song

702 views 12 this week
no commentswrite comment
1 2 3 4 5
3 more votes to show rating
add to favorites
×
Save as Personal and add changes to this tab that will be seen only by you. Learn more ›
×
You can save this tab as Personal to edit and correct it or add notes. All changes will be seen only by you. Learn more »
launch autoscroll
font size
0
reset
transpose
0
reset
display chords
guitar tuner
edit
Autoscroll
slow
fast
+/-
esc
set tempo
stop
Author
Unregistered
Strumming
There is no strumming pattern for this song yet. and get +5 IQ
CAMARÓN DE LA ISLA (Como el agua)

Acordes:
B : 024442
C : 335553
Bb*: 232552
D : 054232

Cejilla en 2º traste

[INTRO]
e|:-----4----------------------4--------------------|
B|:--4----3-4-5---5-4-3-4-5-4----3-4-5---5-4-3-4-5--|
G|:-------------------------------------------------|
D|:-------------------------------------------------|
A|:-------------------------------------------------|
E|:-------------------------------------------------|

e|-----------------------------------------------------|
B|-----------------------------------------------------|
G|----6-7-9--------------------------------------------|
D|-----------6-6h7-7---7-9-7-9-7-6-9-6-6h7-7-----------|
A|-----------------------------------------------------|
E|-----------------------------------------------------|

e|-----------------------------------------------|
B|-9-10-12--12-12-12h11--11-11-11h10--10-10-10h9-|
G|-----------------------------------------------|
D|-----------------------------------------------|
A|-----------------------------------------------|
E|-----------------------------------------------|

e|------------------------------------------------------------------------|
B|-9-9-9h8--8-8-8h7--0-0--7-7h0--0-0--------------------------------------|
G|------------------------------------------------------------------------|
D|------------------------------------------------------------------------|
A|-----------------------------------2-4-5--2-2-3-4--5h4h3-3h4h5--2-2-3-4-|
E|------------------------------------------------------------------------|

Rasgueo de B 

B
Limpia va el agua del río
como la estrella de la mañana
C
limpiaba el cariño mío
el manantial de tu fuente clara

Rasgueo de C 

D            C            B
Como el agua, como el agua, como agua...

C
Como el agua clara,
                B
que baja del monte
C
así quiero verte
                B      (Rasgueo)
de día y de noche.

D            C            B
Como el agua, como el agua, como agua...

B
Yo te eché mi brazo al hombro
                       C
y un brillo de luz de luna
     D  C    B
iluminaba tus ojoooooooooooooooos.

                  C
De ti deseo yo toíto el calor
                          D
pa ti mi cuerpo si lo quieres tu
                            C       2 Golpes
fuego en la sangre nos corre a los dos...

D            C            B
Como el agua, como el agua, como agua...

e|:-----4----------------------4-------------------------------------------------------------------------|
B|:--4----3-4-5---5-4-3-4-5-4----3-4-5---5-4-3-4-5-------------------------------------------------------|
G|:-----------------------------------------------------6-7-9--------------------------------------------|
D|:------------------------------------------------------------6-6h7-7---7-9-7-9-7-6-9-6-6h7-7-----------|
A|:------------------------------------------------------------------------------------------------------|
E|:------------------------------------------------------------------------------------------------------|

B
B  tus ojillos fueran
aceitunitas verdes

C
toa la noche estaría
muele que muele
muele que muele

D
toa la noche estaría
C
muele que muele
Bb
muele que muele
B
muele que muele

D            C            B
Como el agua, como el agua, como agua...
D            C            B
Como el agua, como el agua, como agua...
D            C            B
Como el agua, como el agua, como agua...

B  teneis canciones flamencas mandarmelas me encantan sobretodo Camarón

************************************

| h  Hammer-on

************************************

            
            
Suggest correction
Creating personal tab
Creating personal tab
You can edit any tab online and save it as your Personal.

You can edit, replace or remove any tab part or add personal notes – all changes will be seen only by you.

Personal tabs can be accessed anytime from any device, even offline.
Learn more »
Give kudos to tab author, rate the tab!
1 2 3 4 5
comments
print report bad tab
guest
Wanna post a correction for this tab? Suggest correction