Oops, an error
Loading. Please wait.

Sabré Si Al Final tab

241 views 1 this week
no commentswrite comment
1 2 3 4 5
3 more votes to show rating
add to favorites
×
Save as Personal and add changes to this tab that will be seen only by you. Learn more ›
×
You can save this tab as Personal to edit and correct it or add notes. All changes will be seen only by you. Learn more »
launch autoscroll
font size
0
reset
how to read this tab
guitar tuner
edit
Autoscroll
slow
fast
+/-
esc
set tempo
stop
Acordes utilizados

DO
E--0
B--1
G--0
D--2
A--3
E--x

DOmaj7
E--0
B--0
G--0
D--2
A--3
E--x

LAm
E--0
B--1
G--2
D--2
A--0
E--x

LA*
E--0
B--0
G--2
D--2
A--0
E--x


INTRO
e ----0-----0------0-----0-----0-----0-----0-----0-------|
B -------------------------------------------------------|
G --5---5-5---5--4---4-4---4--2--2-2---2--4--4-4---4-----| fig. 1
D -------------------------------------------------------|
A -------------------------------------------------------|
E -------------------------------------------------------|

e ----0-----0------0-----0--------3-----3-----3-----3----|
B -------------------------------------------------------|
G --5---5-5---5--4---4-4---4--2-2----2-2---2-2---2-2---2-| fig. 2
D -------------------------------------------------------|
A -------------------------------------------------------|
E -------------------------------------------------------|

VERSO
fig. 1
Yo tenía mis balas contadas
fig. 2
te disparé en la sien la final
fig. 1
en el río corrió la manada
fig. 2
en el cuerpo la sangre enmudeció

PRECORO
fig. 1
oh  oh  oh oh oh
fig. 2
oh  oh  oh oh oh

CORO
   DO      DOmaj7  LAm     LA*
e|--0---3-----0---3----0---3----0---3----|
B|--1---1-----0---0----1---1----0---0----|
G|--0---0-----0---0----2---2----2---2----|
D|--2---2-----2---2----2---2----2---2----|
A|--3---3-----3---3----0---0----0---0----|
E|--x---x-----x---x----x---x----x---x----|


DO                DOmaj7      LAm   LA*
Solo los muertos irán a mi entierro
DO             DOmaj7     LAm  LA*
luego se devolverán sin mirar
DO             DOmaj7     LAm   LA*
en los huesos tendré un encierro
DO             DOmaj7      LAm      LA*
y sabré si al final soy el maaaaaaaal
fig. 1
y sabré si al final....


PUENTE
e ----3-----3------3-----3-----3-----3-----3-----3-------|
B -------------------------------------------------------|
G --5---5-5---5--4---4-4---4--2--2-2---2--4--4-4---4-----| fig. 3
D -------------------------------------------------------|
A -------------------------------------------------------|
E -------------------------------------------------------|

fig. 3
Oh oh oh oh oh ohhhhhhmmmm
fig. 3
oh oh oh oh oh ohhhhhhmmmm

CORO
DO                DOmaj7      LAm   LA*
Solo los muertos irán a mi entierro
DO             DOmaj7     LAm  LA*
luego se devolverán sin mirar
DO             DOmaj7     LAm   LA*
en los huesos tendré un encierro
DO             DOmaj7      LAm      LA*
y sabré si al final soy el maaaaaaaal
DO             DOmaj7      LAm      LA*
y sabré si al final voy al maaaaaaaar
DO             DOmaj7      LAm    LA*
y sabré si al final voy a amaaaaaar
fig. 1
y sabré si al final....


FINAL
E--0
B---
G--5
D---
A---
E---

            
            
Suggest correction
Creating personal tab
Creating personal tab
You can edit any tab online and save it as your Personal.

You can edit, replace or remove any tab part or add personal notes – all changes will be seen only by you.

Personal tabs can be accessed anytime from any device, even offline.
Learn more »
Give kudos to tab author, rate the tab!
1 2 3 4 5
comments
print report bad tab
guest
Wanna post a correction for this tab? Suggest correction