Oops, an error
Loading. Please wait.

Adicción tab

46 views 1 this week
no commentswrite comment
1 2 3 4 5
3 more votes to show rating
add to favorites
×
Save as Personal and add changes to this tab that will be seen only by you. Learn more ›
×
You can save this tab as Personal to edit and correct it or add notes. All changes will be seen only by you. Learn more »
launch autoscroll
font size
0
reset
how to read this tab
guitar tuner
edit
Autoscroll
slow
fast
+/-
esc
set tempo
stop
Intro:
      C5
|-----------|
|-----------|  La "x" significa que pasa la uña encima de las cuerdas
|-x/---5~---|  hasta que llega al acordes que dice, el "~" significa
|-x/---5~---|  que deja sonar hasta que vaya disminuyendo(bien dejas sonar
|-x/---3~---|  o te acuerdas al amplificador para que se acople)
|-----------|


Siempre estuviste ahí..esperando..el momento..en que te vaya a tomar
sabes qué?..me gustaste..me alucinaste..no te puedo dejaaaaar...

       C5        A5         D5          G5
|-----------------------------------------------|
|-----------------------------------------------|
|--5-5-5-5-5-------------7-7-7-7-7--------------|
|--5-5-5-5-5--7-7-7-7-7--7-7-7-7-7--5-5-5-5-5---|
|--3-3-3-3-3--7-7-7-7-7--5-5-5-5-5--5-5-5-5-5---|
|-------------5-5-5-5-5-------------3-3-3-3-3---| x2


Nunca en mi vida te olvidaré...no lo haré jamás..te necesito máaaaaaaaaaas...

     F5       G5         C5              F5
|--------------------------------------------------|
|--------------------------------------------------|
|---------------------5555555555-------------------|
|-3333333---5555555---5555555555----33333333333----|
|-3333333---5555555---3333333333----33333333333----|
|-1111111---3333333-----------------11111111111----|

G5  A5  B5   C5   D5  E5      F5*
-------------------------------------------|
-------------------------------------------|
--------------------777/999/101010101010---|
-555/777/999/101010/777/999/101010101010---|
-555/777/999/101010/555/777/-8-8-8-8-8-8---|
-333/555/777/-8-8-8------------------------|

Donde estés...donde estés..a donde vayas..yo te buscaré..
Donde estés...donde estés..a donde vayas..yo te encontraré..

     C5        F5          G5        C5        G5
|------------------------------------------------------|
|------------------------------------------------------|
|--5555555------------------------55555555-------------|
|--5555555---33333333---5555555---55555555---5-5-5-5---|
|--3333333---33333333---5555555---33333333---5-5-5-5---|
|------------11111111---3333333--------------3-3-3-3---| x2


  B5 C5 B5 C5  F#5 G5 F#5 C5   B5 C5 B5 C5   F#5 G5 F#5 G5   C5
|-----------------------------------------------------------------|
|-----------------------------------------------------------------|
|--4/555/4/555------------------4/555/4/555-------------------5---|
|--4/555/4/555---4/555/4/555----4/555/4/555----4/555/4/555----5---|
|--2/333/2/333---4/555/4/555----2/333/2/333----4/555/4/555----3---|
|----------------2/333/2/333-------------------2/333/2/333--------|


Para mí..es un alivio..saber que contigo...siempre puedo contar
y es que tú.. me cambiaste..me transformaste..no te puedo dejaaaar..

       C5        A5         D5          G5
|-----------------------------------------------|
|-----------------------------------------------|
|--5-5-5-5-5-------------7-7-7-7-7--------------|     (Slide hacia arriba)
|--5-5-5-5-5--7-7-7-7-7--7-7-7-7-7--5-5-5-5-5---|
|--3-3-3-3-3--7-7-7-7-7--5-5-5-5-5--5-5-5-5-5---|
|-------------5-5-5-5-5-------------3-3-3-3-3---| x2


Nunca en mi vida te olvidaré...no lo haré jamás..te necesito máaaaaaaaaaas...

     F5       G5         C5              F5
|--------------------------------------------------|
|--------------------------------------------------|
|---------------------5555555555-------------------|
|-3333333---5555555---5555555555----33333333333----|
|-3333333---5555555---3333333333----33333333333----|
|-1111111---3333333-----------------11111111111----|

G5  A5  B5   C5   D5  E5      F5*
-------------------------------------------|
-------------------------------------------|
--------------------777/999/101010101010---|
-555/777/999/101010/777/999/101010101010---|
-555/777/999/101010/555/777/-8-8-8-8-8-8---|
-333/555/777/-8-8-8------------------------|


Donde estés...donde estés..a donde vayas..yo te buscaré..
Donde estés...donde estés..a donde vayas..yo te encontraré..
Donde estés...donde estés..a donde vayas..yo te buscaré..

     C5        F5          G5        C5        G5
|------------------------------------------------------|
|------------------------------------------------------|
|--5555555------------------------55555555-------------|
|--5555555---33333333---5555555---55555555---5-5-5-5---|
|--3333333---33333333---5555555---33333333---5-5-5-5---|
|------------11111111---3333333--------------3-3-3-3---| x3


Donde estés...donde estés..a donde vayaaaaaaaaaaaaas

     C5        F5       G5  A5  B5
|--------------------------------------------|
|--------------------------------------------|
|--5555555--------------------------------/--|
|--5555555---33333333---555/777/999/101010/--| seguido---]
|--3333333---33333333---555/777/999/101010/--|
|------------11111111---333/555/777/-8-8-8---|

 D5   E5   F5
---------------------------------|
---------------------------------|
/777/999/101010/(12)-(12)-(12)---|
/777/999/101010/(12)-(12)-(12)---|
/555/777/-8-8-8/(10)-(10)-(10)---|
---------------------------------|

Yo te encontra..réeee

                  C5
               |--------|
               |--------|
               |---5~---|
               |---5~---|
               |---3~---|
               |--------|

            
            
Suggest correction
Creating personal tab
Creating personal tab
You can edit any tab online and save it as your Personal.

You can edit, replace or remove any tab part or add personal notes – all changes will be seen only by you.

Personal tabs can be accessed anytime from any device, even offline.
Learn more »
Give kudos to tab author, rate the tab!
1 2 3 4 5
comments
print report bad tab
guest
Wanna post a correction for this tab? Suggest correction