Oops, an error
Loading. Please wait.

Sombra De Un Adiós tab

30 views 1 this week
no commentswrite comment
1 2 3 4 5
3 more votes to show rating
add to favorites
×
Save as Personal and add changes to this tab that will be seen only by you. Learn more ›
×
You can save this tab as Personal to edit and correct it or add notes. All changes will be seen only by you. Learn more »
launch autoscroll
font size
0
reset
how to read this tab
guitar tuner
edit
Autoscroll
slow
fast
+/-
esc
set tempo
stop
        Dm                   A
Quiero ser un ladrón que entienda
              Dm                               A
que no puede ver mas allá de lo que tiene en frente

         A#               C
Y la verdad... te busco adentro
         A#                     C
y la verdad es que ya no te encuentro

          Dm           A
Quiero estar ahí intentando ver
|--------5------------------5----|
|------6------------------5------|
|----7------------------6--------|
|--7------------------7----------|
|--------------------------------|
|--------------------------------|
        Dm                         A
mil retratos de las cosas que te tienes por perder
|--------5------------------5----|
|------6------------------5------|
|----7------------------6--------|
|--7------------------7----------|
|--------------------------------|
|--------------------------------|

         A#            C
Y la verdad... camino lento
|--6--|
|--6--|
|--7--|
|--8--|
|--8--|
|--6--|

         A#                        C
y la verdad es que ya no hay mas tiempo

CORO:

             D           G         A
Qué voy a hacer una ilusión sangra otra vez
       D          G               A
y no puedo ver si hay alguien de pie
             D             G           A
Y aunque te busco y no encuentro solución
         D             G            A
sigo quedándome en la maldita obsesión


     Dm                A
Esta es una historia que
|------6-5----------------6-5--|
|------------------------------|
|----7------------------6------|
|--7------------------7--------|
|------------------------------|
|------------------------------|

         Dm                        A
irá encajando en aquellos libros llenos de papel
|------6-5----------------6-5--|
|------------------------------|
|----7------------------6------|
|--7------------------7--------|
|------------------------------|
|------------------------------|

         A#               C
y la verdad... estoy tan solo
|--6--|
|--6--|
|--7--|
|--8--|
|--8--|
|--6--|

         A#                        C
y la verdad... es que ya no me enamoro


CORO:
             D           G         A
Qué voy a hacer una ilusión sangra otra vez
       D       G               A
y no puedo si hay alguien de pie
             D             G           A
Y aunque te busco y no encuentro solución
         D             G            A
sigo quedándome en la maldita obsesión

[Em-Am-Em-Am-Em]

|--------------------------------------------------------------------
|--10s12-10s12..---10s12-10-8--10s12-10-10------------8---8-10-10s12-
|---------------------------------------------7---7-9---9------------
|-------------------------------------------9---9--------------------
|--------------------------------------------------------------------
|--------------------------------------------------------------------

-10----------10s12-10s12-10s12...--|
----12-10-8------------------------|
-----------------------------------|
-----------------------------------|
-----------------------------------|
-----------------------------------|

          Am
Sé que alguna vez
         Em           Am
pudiste verme solo aquí de pie

         F            G
Y la verdad me duele tanto
               C       G        F           G
que ya no estaré otra vez inventando otro cuento
        C      G    F       G
que no tenga que dejar triste final atrás

[Dm-A]x2


|--------------------------------------------------------------
|-------10..-8s10-8---10-11-10-8-10-8---------8----------------
|----10-------------------------------10-9-10---10-9-10-9-7----
|-12--------------------------------------------------------10-
|--------------------------------------------------------------
|--------------------------------------------------------------

-------------------|
--------10----11..-|
------9------------|
---11--------------|
12-----------------|
-------------------|

         A#            C
Y la verdad... camino lento
         A#                        C
y la verdad es que ya no hay mas tiempo

[Dm-A]x2...

|--------------------------------------------------------------------
|--10^-10^^...-----15^-15^..-13-15----------------11-10--8-----------
|---------------------------------------10----10-------------10-10-9-
|------------------------------------12----12------------------------
|--------------------------------------------------------------------
|--------------------------------------------------------------------

-----------------------------------------8------------------
------------------8-8--10-11-10-8-10-------11-10-8----------
-9-9--7-9-9-10-10----------------------------------10-9-10--
------------------------------------------------------------
------------------------------------------------------------
------------------------------------------------------------

----------------------8-10---|
--8-10-11-10----10-11--------|
-----------------------------|
-----------------------------|
-----------------------------|
-----------------------------|


utilice la transcripcion de Javier Sánchez Vereau
para evitar desorden

            
            
Suggest correction
Creating personal tab
Creating personal tab
You can edit any tab online and save it as your Personal.

You can edit, replace or remove any tab part or add personal notes – all changes will be seen only by you.

Personal tabs can be accessed anytime from any device, even offline.
Learn more »
Give kudos to tab author, rate the tab!
1 2 3 4 5
comments
print report bad tab
guest
Wanna post a correction for this tab? Suggest correction