Oops, an error
Loading. Please wait.

Revolución tab

version 2
version 2

Whole song

32 views 1 this week
no commentswrite comment
1 2 3 4 5
3 more votes to show rating
add to favorites
×
Save as Personal and add changes to this tab that will be seen only by you. Learn more ›
×
You can save this tab as Personal to edit and correct it or add notes. All changes will be seen only by you. Learn more »
launch autoscroll
font size
0
reset
how to read this tab
guitar tuner
edit
Autoscroll
slow
fast
+/-
esc
set tempo
stop
Este tema cuenta con dos guitarras: una electroacustica
y una electrica distorsionada.

Intro:

Guitarra 1:

E|-2-2-2-3--3-5-3-|
B|-3-3-3-3--3-3-3-|
G|-2-2-2-2--2-2-2-| x8
D|----------------|
A|----------------|
E|----------------|

y comienza la Guitarra 2:

E|--10v---------------------------------------|
B|-------7v--7-10-7v-7/5-5/7-7-10v--12v-10-7v-|
G|--------------------------------------------|
D|--------------------------------------------|
A|--------------------------------------------|
E|--------------------------------------------|

La Guitarra 1 hace lo mismo que la introduccion en los
versos:

D
Es un nuevo sentido, que le damos al destino
D
Despertamos renovados, el sol cabe en nuestras manos
D
Flores en el corazón, un trago de agua miel
D
Tiempo de recambio es hoy, colores que otros no ven.

Guitarra 2:

E|--10v---------------------------------------|
B|-------7v--7-10-7v-7/5-5/7-7-10v--12v-10-7v-|
G|--------------------------------------------|
D|--------------------------------------------|
A|--------------------------------------------|
E|--------------------------------------------|

D
la sustancia de tu alma, me permite despegar
D
nuestro secreto es el don, ver colores que otros no ven.


La Guitarra 1 en el coro solamente marca los acordes.

Coro:

D                  A              G    Gm     D         
Revolucion a comenzado, un sol distinto necesitamos
D                     A                G  Gm         D
Revolución sentirce amados, el sueño crece entre los dos,
(Riff 1)
entre los dos....

Riff 1 Guitarra 2: 

E|-------------|
B|--5b6-5-3-3v-|
G|-------------|
D|-------------|
A|-------------|
E|-------------|

Riff 2 Guitarra 2:

E|-----------|
B|--5h3-5h3v-|
G|-----------|
D|-----------|
A|-----------|
E|-----------|

Riff 3 Guitarra 2:

E|-----------|
B|--5b6r5-3v-|
G|-----------|
D|-----------|
A|-----------|
E|-----------|

Solo de Batería.

Guitarra 2:

E|--10v---------------------------------------|
B|-------7v--7-10-7v-7/5-5/7-7-10v--12v-10-7v-|
G|--------------------------------------------|
D|--------------------------------------------|
A|--------------------------------------------|
E|--------------------------------------------|

D                                        (Riff 2)
Yo prefiero despertarme a ver el amanecer
D                  (Riff 2) (Riff 2)   (Riff 3)        
y ojala puedas venir yo te necesito aquí.

Coro:

D                     A              G   Gm        D
Revolucion nada en mi alma, sera cambiado vivire amando
D                    A                G   Gm (Riff 1)   D                
Revolucion sabras creerme, cuando me veas trayéndote el sol,

trayéndote el sol...

Solo Guitarra 2 (Guitarra 1 marca acordes del coro):

E|------------------------------------------------------|
B|------------------------------------------------------|
G|---7-6-------7-6v/9-----------------------------------|
D|-7-----4v--7--------7v---7-7v-7/5-5/12v--7-5-5/4v/12v-|
A|------------------------------------------------------|
E|------------------------------------------------------|

Coro:

D                    A               G    Gm (Riff1)
Revolución sentirte amando, el sueño crece entre los dos,
(Riff 1)
entre los dos....


Al final de la cancion una guitarra electroacustica hace
esto:

E|--10v---12/5v---7/2v--------|
B|-----------------------3/5v-|
G|----------------------------|
D|----------------------------|
A|----------------------------|
E|----------------------------|

Nota:

- La expresion 6v/9 significa que primero haces vibrar
la cuerda y despues la deslizas hacia el traste indicado.

Este es un excelente tema y ojalá que disfruten esta tab.
Chao.

            
            
Suggest correction
Creating personal tab
Creating personal tab
You can edit any tab online and save it as your Personal.

You can edit, replace or remove any tab part or add personal notes – all changes will be seen only by you.

Personal tabs can be accessed anytime from any device, even offline.
Learn more »
Give kudos to tab author, rate the tab!
1 2 3 4 5
comments
print report bad tab
guest
Wanna post a correction for this tab? Suggest correction