Oops, an error
Loading. Please wait.

Mañanitas Guerrerenses tab

476 views 1 this week
no commentswrite comment
1 2 3 4 5
3 more votes to show rating
add to favorites
×
Save as Personal and add changes to this tab that will be seen only by you. Learn more ›
×
You can save this tab as Personal to edit and correct it or add notes. All changes will be seen only by you. Learn more »
launch autoscroll
font size
0
reset
how to read this tab
guitar tuner
edit
Autoscroll
slow
fast
+/-
esc
set tempo
stop
e|-0-0--0-0-2--0-0--|-----
B|-2-2--2-2-3--2-2--|-----
G|------------------|-E7--
D|------------------|-----
A|------------------|-----
E|------------------|-----

e|-0-2-4-5-4-2-0----|-----
B|-2-3-5-7-5-3-2----|-----
G|------------------|-A---
D|------------------|-----
A|------------------|-----
E|------------------|-----


e|-0-0--5-4-2-0----|------
B|-2-2--7-5-3-2----|------
G|-----------------|--E7--
D|-----------------|------
A|-----------------|------
E|-----------------|------


e|-4-4-4--2-4-2-0---|-----
B|-5-5-5--3-5-3-2---|-----
G|------------------|--A--
D|------------------|-----
A|------------------|-----
E|------------------|-----


e|-0-2-4-5-4-2-4-2-0--|----
B|-2-3-5-7-5-3-5-3-2--|----
G|--------------------|--A-
D|--------------------|----
A|--------------------|----
E|--------------------|----

 A                   E7
 Estas son las mañanitas
                        A
 que se cantan en Guerrero,
                      E7
 a las muchachas bonitas
                      A
 y a los amigos sinceros.

 A                    E7
 Cantar, corazón, cantar,
                       A
 cantar y seguir cantando,
                       E7
hoy por ser día de tu santo
                    A
te estamos felicitando.

A                  E7
De muy lejos he venido
                    A
brincando los tepanoles
                   E7
 sólo por venir a ver
                    A
 las ollotas de pozole

A                    E7
 Llorar, corazón, llorar
                       A
 llorar si tienes por qué
                         E7
que no es afrenta del hombre
                  A
llorar por una mujer.

A                   E7
No traigo corona de oro
                    A
 ni tampoco de cristal
                   E7
sólo traigo mi barriga
                     A
 pa? llenarla de mezcal.

A                 E7
Esta casa esta medida
                 A
con varas de listón
                     E7
en cada esquina una rosa
                   A
y en medio su corazón

A                    E7
De tanto cantar y cantar
                   A
ya me duele la cabeza
                      E7
porque aquí no saben dar
                     A
 ni un trago de cerveza

A                 E7
Por esta calle me voy
                         A
y por la otra doy la vuelta,
                         E7
volveremos de aquí a un año
                         A
 si Dios la vida nos presta.


Bueno aqui con una rolita muy tradicional del estado de guerrero...
y ps estos son agunos de los versos de la cancion original
bueno espero y les guste la version chenkenla y si quieren modifiquenla un poco
pero pues mas o menos ai esta en ese tono
by luisito....producciones kinchos boys... puro guerrero paisano xd

            
            
Suggest correction
Creating personal tab
Creating personal tab
You can edit any tab online and save it as your Personal.

You can edit, replace or remove any tab part or add personal notes – all changes will be seen only by you.

Personal tabs can be accessed anytime from any device, even offline.
Learn more »
Give kudos to tab author, rate the tab!
1 2 3 4 5
comments
print report bad tab
guest
Wanna post a correction for this tab? Suggest correction