Oops, an error
Loading. Please wait.

Niño tab

76 views 6 this week
no commentswrite comment
1 2 3 4 5
3 more votes to show rating
add to favorites
×
Save as Personal and add changes to this tab that will be seen only by you. Learn more ›
×
You can save this tab as Personal to edit and correct it or add notes. All changes will be seen only by you. Learn more »
launch autoscroll
font size
0
reset
how to read this tab
guitar tuner
edit
Autoscroll
slow
fast
+/-
esc
set tempo
stop
hola como estan gente, esta cancion es muy buena y 
se la dedico a ariana y a toda la gente que le gusta
candy 66 lo que falta se los mando un dia de estos 
para que la terminen con esto pueden empesar a sacarla 
y si tiene algun herror mandemelo a mi correo es 
josefranco41@ y muevan ese culoooooo...
  INTRO
e|---------------------------------------------|
B|---------------------------------------------|
G|-------------------------0------0----3-----3-|
D|-----1------1----1---------------------------|
A|-33-----33----3------33-----33-----3----3----|
E|---------------------------------------------|
   si algun dia te has preguntado te has confundido
   por que ha sido ..................
e|---------------------------------------------|
B|---------------------------------------------|
G|-----0-----0-----0----0----0----0-----0----0-|
D|---------------------------------------------|
A|-11-----11----1----1-------------------------|
E|------------------------44----44----4----4---|

E|---------------------------------------------|
B|---------------------------------------------|
G|--55-5555--88-8888-----------66-6666---------|
D|--55-5555--88-8888--66-6666--66-6666---------|
A|--33-3333--66-6666--66-6666--44-4444---------|
E|--xx-xxxx--xx-xxxx--44-4444--44-4444---------|
                      no se lo que paso
todo ha cambiado.........

o.k gente nos vemos y viva venezuela cabrones 
malditos mexicanos
Suggest correction
Creating personal tab
Creating personal tab
You can edit any tab online and save it as your Personal.

You can edit, replace or remove any tab part or add personal notes – all changes will be seen only by you.

Personal tabs can be accessed anytime from any device, even offline.
Learn more »
Give kudos to tab author, rate the tab!
1 2 3 4 5
comments
print report bad tab
guest
Wanna post a correction for this tab? Suggest correction