Oops, an error
Loading. Please wait.

Fín De Semana tab

70 views 1 this week
no commentswrite comment
1 2 3 4 5
3 more votes to show rating
add to favorites
×
Save as Personal and add changes to this tab that will be seen only by you. Learn more ›
×
You can save this tab as Personal to edit and correct it or add notes. All changes will be seen only by you. Learn more »
launch autoscroll
font size
0
reset
how to read this tab
guitar tuner
edit
Autoscroll
slow
fast
+/-
esc
set tempo
stop
Aquí dejo otro temita del nuevo disco. Lo de siempre,
oir la canción para interpretar mejor lo que trascribo.
Espero que os guste y suerte!!

Fin de Semana (Personas)--->2008

***AFINACIÓN EN MIb***

INTRO: Tocamos esto 4 veces

e|------------------------------------| Esta parte se hace
B|------------------------------------| tocando las notas con
G|------------------------------------| ligaduras(deslizar el
D|------------------------------------| dedo por la cuerda
A|-7-10-7-10-7-10-7--7-10-7-10-7-10---|  (7 = Mim ; 10 = Sol)
E|------------------------------------|


MI
Pasan cosas, cambian otras, ley de vida tal vez,
             RE-DO#-RE
todo se acaba
MI                                                          RE-DO#
El ser humano busca un ser que le ame para su segundo tramo
     LA                       SI
y tu quieres ser pequeño otra vez


---(Puente como la intro)---> 2 VECES

e|------------------------------------|
B|------------------------------------|
G|------------------------------------|
D|------------------------------------|
A|-7-10-7-10-7-10-7--7-10-7-10-7-10---|
E|------------------------------------|


MI
Yo pago coche, pago casa, pago para comer
              RE-DO#-RE
todo se paga!!
MI
y ya no hay papa, ya no hay mama
                                  RE-DO#
solo un gelocatil, de madrugada!!

LA                    SI                       DO#   SI
Si giras el cuello te vez pequeño y con quince años
   LA                      SI
y duele, pero ahora estás bien!


------------------------------------------------|
MI            LA         SI      MI       LA-SI |
Siempre quedará nuestro fin de semana           |
MI            LA         SI      MI       LA-SI |
nunca dejaré de querer ver vuestras caras       |
MI            LA         SI      MI       LA-SI |  ESTRIBILLO
siempre quedará nuestro fin de semana           |
LA                      SI                      |
y llegará el domingo otra vez                   |
                                                |
------------------------------------------------|


---(Puente como la intro)---> 2 VECES

e|------------------------------------|
B|------------------------------------|
G|------------------------------------|
D|------------------------------------|
A|-7-10-7-10-7-10-7--7-10-7-10-7-10---|
E|------------------------------------|


MI
Te acuerdas tanto de esos años, de tu cuento
                         RE-DO#-RE
del parque y de tu plaza
MI
y de tu madre que decía abrigate que hace
                      RE-DO#
un frío que te cagas!


LA                    SI                       DO#   SI
Si giras el cuello te vez pequeño y con quince años
   LA                      SI
y duele, pero ahora estás bien!


------------------------------------------------|
MI            LA         SI      MI       LA-SI |
Siempre quedará nuestro fin de semana           |
MI            LA         SI      MI       LA-SI |
nunca dejaré de querer ver vuestras caras       |
MI            LA         SI      MI       LA-SI |  ESTRIBILLO
siempre quedará nuestro fin de semana           |
LA                      SI                      |
y llegará el domingo otra vez                   |
                                                |
------------------------------------------------|


---(SOLO DE GUITARRA)--- Suseción de acordes: Mi, Do#, Si, La
                                              MI, RE#, RE, LA, SI

e|----------------------------------------------------------------------|
B|-----12----------------------12--------------12------------12---------|
G|-11^----11^-9-------9-11-11^----11^-11-9-11^-----9-11-11^----11^-11-9-|
D|-----------------11---------------------------------------------------|
A|----------------------------------------------------------------------|
E|----------------------------------------------------------------------|


e|----------------------------------------------------------------------|
B|---------------------------------------------------------12-----------|
G|------9-11-11^-9-9------9-11-11^-9-9------9-11-11^-9-11^-11-----------|
D|-9/11--------------9/11--------------9/11-----------------------------|
A|----------------------------------------------------------------------|
E|----------------------------------------------------------------------|


e-----------------------------------------------------------------------|
B|----------------------------------------------------------------------|
G|------9-11-11^-9-9------9-11-11^-9-9------9-11-11^-9-11^-11-----------|
D|-9/11--------------9/11--------------9/11-----------------------------|
A|----------------------------------------------------------------------|
E|----------------------------------------------------------------------|


e|------------------|
B|-10-----12--- ----|
G|-9------11--------|
D|------------------|   El final del solo tocamos la misma nota un compás
A|------------------|   cada una.
E|------------------|

^ ---> Hacemos un Bend

------------------------------------------------|
MI            LA         SI      MI       LA-SI |
Siempre quedará nuestro fin de semana           |
MI            LA         SI      MI       LA-SI |
nunca dejaré de querer ver vuestras caras       |
MI            LA         SI      MI       LA-SI |  ESTRIBILLO
siempre quedará nuestro fin de semana           |
LA                      SI                      |
y llegará el domingo otra vez                   |
                                                |
------------------------------------------------|

Final de la canción como la intro: 2 VECES

e|------------------------------------|
B|------------------------------------|
G|------------------------------------|
D|------------------------------------|
A|-7-10-7-10-7-10-7--7-10-7-10-7-10---|
E|------------------------------------|

FIN

            
            
Suggest correction
Creating personal tab
Creating personal tab
You can edit any tab online and save it as your Personal.

You can edit, replace or remove any tab part or add personal notes – all changes will be seen only by you.

Personal tabs can be accessed anytime from any device, even offline.
Learn more »
Give kudos to tab author, rate the tab!
1 2 3 4 5
comments
print report bad tab
guest
Wanna post a correction for this tab? Suggest correction