Oops, an error
Loading. Please wait.

La Madre De José tab

version 1
version 1

Whole song

283 views 1 this week
no commentswrite comment
1 2 3 4 5
3 more votes to show rating
add to favorites
×
Save as Personal and add changes to this tab that will be seen only by you. Learn more ›
×
You can save this tab as Personal to edit and correct it or add notes. All changes will be seen only by you. Learn more »
launch autoscroll
font size
0
reset
how to read this tab
guitar tuner
edit
Autoscroll
slow
fast
+/-
esc
set tempo
stop
Que onda?, chavos de la cuerda. En esta ocacion les mando el solo
de esta cancion que esta muy chida, chequen el solo que ya habian
mandado y se daran cuenta cual suena mejor. Y a quien mando el
otro, le aconsejo que ponga atencion a sus escalas.

Va dedicada nuevamente para mi primo Pako Ruiz Morales, de Garoé.
Ojala te acuerdes para proximas cosas en el grupo.

*******

Después del primer coro hace un arreglo que después repite en el
solo y ese este (Cuando vean esto ^ jalen la cuerda hacia arriba):

E|----------|--------------------|----------------|-----------|
A|----------|--------------------|----------------|-----------|
D|-1-1-3-4^-|-1-1-3-4-3-4---4-3^-|-3-3-3-3-4-3-1^-|-1-1-3-3-4-|
G|----------|-------------1------|----------------|-----------|
B|----------|--------------------|----------------|-----------|
e|----------|--------------------|----------------|-----------|

E|---------------------------------
A|---------------------------------
D|---------------------------------
G|-------------------------------3-
B|-6^-6^-6^-6^-6^-6^-4-4-2-2-1-1-4-
e|-6^-6^-6^-6^-6^-6^-4-4-2-2-1-1---

*********

Este es el solo:

E|----------|--------------------|----------------|-------------------
A|----------|--------------------|----------------|-------------------
D|-1-1-3-4^-|-1-1-3-4-4-------3^-|-3-3-3-------4^-|-4-4-4-------------
G|----------|-----------1-1-1----|-------3-3-3----|-----------1-3-1-3-
B|----------|--------------------|----------------|-------0-0---------
e|----------|--------------------|----------------|-------------------

E|-------------------|---------------------------------------------
A|-------------------|---------------------------------------------
D|-------------------|-----------------4---------------------------
G|1-3-1-3-3----------|---------3-3-3-1---1-1-1-1-1---------3-------
B|----------2-2-2-4^-|-4-4-4-4---------4-----------2-2-2-0---0-----
e|-------------------|---------2-2-2-1---1-1-1-1-1-4-4-4-2-1-2-2-2-

E|-----------------------------------------
A|-----------------------------------------
D|-----------------------------------------
G|---------------------------------------3-
B|-----2-2-6^-6^-6^-6^-6^-6^-4-4-2-2-1-1-4-
e|-2-2-6-6-6^-6^-6^-6^-6^-6^-4-4-2-2-1-1---

Okas, este son los dos arreglo principales de la cancion,
cualquier duda u observación a mi e-mail por favor.

            
            
Suggest correction
Creating personal tab
Creating personal tab
You can edit any tab online and save it as your Personal.

You can edit, replace or remove any tab part or add personal notes – all changes will be seen only by you.

Personal tabs can be accessed anytime from any device, even offline.
Learn more »
Give kudos to tab author, rate the tab!
1 2 3 4 5
comments
print report bad tab
guest
Wanna post a correction for this tab? Suggest correction