Oops, an error
Loading. Please wait.

La Madre De José bass

138 views 3 this week
no commentswrite comment
1 2 3 4 5
3 more votes to show rating
add to favorites
×
Save as Personal and add changes to this tab that will be seen only by you. Learn more ›
×
You can save this tab as Personal to edit and correct it or add notes. All changes will be seen only by you. Learn more »
launch autoscroll
font size
0
reset
guitar tuner
edit
Autoscroll
slow
fast
+/-
esc
set tempo
stop
                
Bajo                                                                           
G||------------------|------------------|------------------|------------------|
D||------------------|------------------|------------------|------------------|
A||------------------|------------------|------------------|------------------|
E||------------------|------------------|------------------|------------------|


                                                                            
------------------|------------------|------------------|------------------|
------------------|------------------|------------------|------------------|
------------------|------------------|------------------|------------------|
------------------|------------------|------------------|------------------|


                                                                            
------------------|------------------|------------------|------------------|
------------------|------------------|------------------|------------------|
------------------|------------------|------------------|------------------|
------------------|------------------|------------------|------------------|


                                                                      
--8--6--4--3--1-----------|--------3------8-----|---------------8----|
-----------------4--3--2--|---------------------|--------8-----------|
--------------------------|---------------------|--------------------|
--------------------------|---------------------|--------------------|


                                                                
---------------8-----|---------------8----|---------------6----|
--------8------------|--------8-----------|--------6-----------|
---------------------|--------------------|--------------------|
---------------------|--------------------|--------------------|


                                                               
-------------------|--------3------8-----|---------------8----|
--------------6----|---------------------|--------8-----------|
-------------------|---------------------|--------------------|
-------------------|---------------------|--------------------|


                                                                 
---------------8-----|---------------8----|---------------8-----|
--------8------------|--------8-----------|--------8------------|
---------------------|--------------------|---------------------|
---------------------|--------------------|---------------------|


                                                              
---------------8----|---------------6----|-------------------|
--------8-----------|--------6-----------|--------------6----|
--------------------|--------------------|-------------------|
--------------------|--------------------|-------------------|


                                                               
--------3------8-----|---------------8----|-------------------|
---------------------|--------8-----------|-------------------|
---------------------|--------------------|-------------------|
---------------------|--------------------|-------------------|


                                                                                
---------------------|------------------|-------------------|------------------|
--4------------4-----|------------------|-------------------|------------------|
---------------------|------------------|-------------------|------------------|
---------------------|------------------|-------------------|------------------|


                                                                     
---------------------|-------------------|--8--6--4--3--1-----------|
--4------------4-----|-------------------|-----------------4--3--2--|
---------------------|-------------------|--------------------------|
---------------------|-------------------|--------------------------|


                                                               
--------3------8----|---------------8----|---------------6----|
--------------------|--------8-----------|--------6-----------|
--------------------|--------------------|--------------------|
--------------------|--------------------|--------------------|


                                                             
---------------6----|-------------------|-------------------|
--------6-----------|--------------6----|--------------6----|
--------------------|-------------------|-------------------|
--------------------|-------------------|-------------------|


                                                                      
----------------6--4--|--3----6--3-----3--------|--------3------8----|
--------3----3--------|-------------3-----3--2--|--------------------|
----------------------|-------------------------|--------------------|
----------------------|-------------------------|--------------------|


                                                               
---------------8----|---------------6----|---------------6----|
--------8-----------|--------6-----------|--------6-----------|
--------------------|--------------------|--------------------|
--------------------|--------------------|--------------------|


                                                               
-------------------|-------------------|----------------6--4--|
--------------6----|--------------6----|--------3----3--------|
-------------------|-------------------|----------------------|
-------------------|-------------------|----------------------|


                                                                    
--3----6--3-----3--------|--------3------8----|---------------8----|
-------------3-----3--2--|--------------------|--------8-----------|
-------------------------|--------------------|--------------------|
-------------------------|--------------------|--------------------|


                                                              
---------------6----|---------------6----|-------------------|
--------6-----------|--------6-----------|--------------6----|
--------------------|--------------------|-------------------|
--------------------|--------------------|-------------------|


                                                                     
-------------------|----------------6--4--|--3----6--3-----3--------|
--------------6----|--------3----3--------|-------------3-----3--2--|
-------------------|----------------------|-------------------------|
-------------------|----------------------|-------------------------|


                                                                            
------------------|------------------|------------------|------------------|
------------------|------------------|------------------|------------------|
------------------|------------------|------------------|------------------|
------------------|------------------|------------------|------------------|


                                                          
------------------|------------------|-------------------|
------------------|------------------|-------------------|
------------------|------------------|-------------------|
------------------|------------------|-------------------|


                                                                      
--8--6--4--3--1-----------|--------3------8-----|---------------8----|
-----------------4--3--2--|---------------------|--------8-----------|
--------------------------|---------------------|--------------------|
--------------------------|---------------------|--------------------|


                                                                
---------------8-----|---------------8----|---------------6----|
--------8------------|--------8-----------|--------6-----------|
---------------------|--------------------|--------------------|
---------------------|--------------------|--------------------|


                                                               
-------------------|--------3------8-----|---------------8----|
--------------6----|---------------------|--------8-----------|
-------------------|---------------------|--------------------|
-------------------|---------------------|--------------------|


                                                             
-------------------|---------------------|------------------|
-------------------|--4------------4-----|------------------|
-------------------|---------------------|------------------|
-------------------|---------------------|------------------|


                                                             
-------------------|------------------|---------------------|
-------------------|------------------|--4------------4-----|
-------------------|------------------|---------------------|
-------------------|------------------|---------------------|


                                                                    
-------------------|--8--6--4--3--1-----------|--------3------8----|
-------------------|-----------------4--3--2--|--------------------|
-------------------|--------------------------|--------------------|
-------------------|--------------------------|--------------------|


                                                               
---------------8----|---------------6----|---------------6----|
--------8-----------|--------6-----------|--------6-----------|
--------------------|--------------------|--------------------|
--------------------|--------------------|--------------------|


                                                               
-------------------|-------------------|----------------6--4--|
--------------6----|--------------6----|--------3----3--------|
-------------------|-------------------|----------------------|
-------------------|-------------------|----------------------|


                                                                    
--3----6--3-----3--------|--------3------8----|---------------8----|
-------------3-----3--2--|--------------------|--------8-----------|
-------------------------|--------------------|--------------------|
-------------------------|--------------------|--------------------|


                                                              
---------------6----|---------------6----|-------------------|
--------6-----------|--------6-----------|--------------6----|
--------------------|--------------------|-------------------|
--------------------|--------------------|-------------------|


                                                                     
-------------------|----------------6--4--|--3----6--3-----3--------|
--------------6----|--------3----3--------|-------------3-----3--2--|
-------------------|----------------------|-------------------------|
-------------------|----------------------|-------------------------|


                                                               
--------3------8----|---------------8----|---------------6----|
--------------------|--------8-----------|--------6-----------|
--------------------|--------------------|--------------------|
--------------------|--------------------|--------------------|


                                                             
---------------6----|-------------------|-------------------|
--------6-----------|--------------6----|--------------6----|
--------------------|-------------------|-------------------|
--------------------|-------------------|-------------------|


                                                                      
----------------6--4--|--3----6--3-----3--------|--------3------8----|
--------3----3--------|-------------3-----3--2--|--------------------|
----------------------|-------------------------|--------------------|
----------------------|-------------------------|--------------------|


                                                               
---------------8----|---------------6----|---------------6----|
--------8-----------|--------6-----------|--------6-----------|
--------------------|--------------------|--------------------|
--------------------|--------------------|--------------------|


                                                               
-------------------|-------------------|----------------6--4--|
--------------6----|--------------6----|--------3----3--------|
-------------------|-------------------|----------------------|
-------------------|-------------------|----------------------|


                                                                
--3----6--3-----3--------|------------------|------------------|
-------------3-----3--2--|------------------|------------------|
-------------------------|------------------|------------------|
-------------------------|------------------|------------------|


                                                                            
------------------|------------------|------------------|------------------|
------------------|------------------|------------------|------------------|
------------------|------------------|------------------|------------------|
------------------|------------------|------------------|------------------|


                                                                    
-------------------|--8--6--4--3--1-----------|--------3------8----|
-------------------|-----------------4--3--2--|--------------------|
-------------------|--------------------------|--------------------|
-------------------|--------------------------|--------------------|


                                                               
---------------8----|---------------6----|---------------6----|
--------8-----------|--------6-----------|--------6-----------|
--------------------|--------------------|--------------------|
--------------------|--------------------|--------------------|


                                                               
-------------------|-------------------|----------------6--4--|
--------------6----|--------------6----|--------3----3--------|
-------------------|-------------------|----------------------|
-------------------|-------------------|----------------------|


                                                                    
--3----6--3-----3--------|--------3------8----|---------------8----|
-------------3-----3--2--|--------------------|--------8-----------|
-------------------------|--------------------|--------------------|
-------------------------|--------------------|--------------------|


                                                              
---------------6----|---------------6----|-------------------|
--------6-----------|--------6-----------|--------------6----|
--------------------|--------------------|-------------------|
--------------------|--------------------|-------------------|


                                                                     
-------------------|----------------6--4--|--3----6--3-----3--------|
--------------6----|--------3----3--------|-------------3-----3--2--|
-------------------|----------------------|-------------------------|
-------------------|----------------------|-------------------------|


                                                               
--------3------8----|---------------8----|---------------6----|
--------------------|--------8-----------|--------6-----------|
--------------------|--------------------|--------------------|
--------------------|--------------------|--------------------|


                                                             
---------------6----|-------------------|-------------------|
--------6-----------|--------------6----|--------------6----|
--------------------|-------------------|-------------------|
--------------------|-------------------|-------------------|


                                                                      
----------------6--4--|--3----6--3-----3--------|--------3------8----|
--------3----3--------|-------------3-----3--2--|--------------------|
----------------------|-------------------------|--------------------|
----------------------|-------------------------|--------------------|


                                                               
---------------8----|---------------6----|---------------6----|
--------8-----------|--------6-----------|--------6-----------|
--------------------|--------------------|--------------------|
--------------------|--------------------|--------------------|


                                                               
-------------------|-------------------|----------------6--4--|
--------------6----|--------------6----|--------3----3--------|
-------------------|-------------------|----------------------|
-------------------|-------------------|----------------------|


                                                                 
--3----6--3-----3--------|------------------|------------------||
-------------3-----3--2--|------------------|------------------||
-------------------------|------------------|------------------||
-------------------------|------------------|------------------||
Suggest correction
Creating personal tab
Creating personal tab
You can edit any tab online and save it as your Personal.

You can edit, replace or remove any tab part or add personal notes – all changes will be seen only by you.

Personal tabs can be accessed anytime from any device, even offline.
Learn more »
Give kudos to tab author, rate the tab!
1 2 3 4 5
comments
print report bad tab
guest
Wanna post a correction for this tab? Suggest correction