Oops, an error
Loading. Please wait.

Llueve En Mí tab

50 views 1 this week
no commentswrite comment
1 2 3 4 5
3 more votes to show rating
add to favorites
×
Save as Personal and add changes to this tab that will be seen only by you. Learn more ›
×
You can save this tab as Personal to edit and correct it or add notes. All changes will be seen only by you. Learn more »
launch autoscroll
font size
0
reset
how to read this tab
guitar tuner
edit
Autoscroll
slow
fast
+/-
esc
set tempo
stop
  Wenas gente! Aquí teneis una versión de Llueve en Mi. Tambien os puede servir como corrección de la que
  hay colgada. Esta versión es la del directo que es mucho más acústica. A disfrutar tocando!


  Dedicada a la pEkE, a la kUkA, al bItxU y a nUrmAl.  

 /* Mirad los comentarios al final de la partitura */
  

InTrOdUccIon:

      SOL                        SIm                        MIm                      
D#||--3--------3--------3-----|--2--------2--------2-----|--0--------0--------0-----|
A#||--3--3--------3--------3--|--3--3--------3--------3--|--0--0--------0--------0--|
F#||--0-----0--------0--------|--4-----4--------4--------|--0-----0--------0--------|
C#||--------------------------|--------------------------|--------------------------|
G#||--------------------------|--2-----------------------|--------------------------|
D#||--3-----------------------|--------------------------|--0-----------------------|


  SOL                        DO                         FA                       
--------------------------|--------------------0-----|--1--------1--------1-----|
--3--------3--------3-----|--1--------1-----------1--|--1--1--------1--------1--|
--0--0--------0--------0--|--0--0--------0-----------|--2-----2--------2--------|
--------0--------0--------|--------2--------2--------|--------------------------|
--------------------------|--3-----------------------|--3-----------------------|
--3-----------------------|--------------------------|--1-----------------------|


  RE                        REsus4                                                      
--------0--------2--------|--3--------2----||
--3--------3--------3-----|-----3-----3----||
--2--2--------2--------2--|--------2--2----||
--0-----------------------|-----------0----||
--------------------------|----------------||
--------------------------|----------------||

(Las siguientes dos estrofas y el estribillo repiten el punteado de la intro)

         SOL  
Y el mundo alrededor 

     SIm
y no puedo soñar

         MIm                     SOL                                
y es que hoy estoy triste, sólo pienso en llorar

      DO               FA          RE     REsus4
si no tengo calor ni cariño junto a mí.


(Igual que la estrofa anterior)

Sólo pienso en buscar una estrella mejor
que me pueda guiar
que alivie este dolor
que me lleve lejos aún más lejos de Madrid


ESTRIBILLO:
 
  Y ahora sólo necesito tu presencia
  que me ausenta y no me duele y hoy te he visto
  y hoy parece que no llueve
  y sólo necesito que alguien crea en mí
  que me ayude a regalar el arte, llueve
  y hoy parece que no llueve en mí
 
  Hoy no llueve en mi,
  hoy no llueve en mi,
  el arte, llueve y hoy no llueve...
  

SOLO:  (Con la misma rueda de acordes)
D#||--7----10----8----8----|--7---------8----7----|-------8----7----3----|--3----5----10----15----|
A#||-----------------------|-------8--------------|--8-------------------|------------------------|
F#||-----------------------|----------------------|----------------------|------------------------|
C#||-----------------------|----------------------|----------------------|------------------------|
G#||-----------------------|----------------------|----------------------|------------------------|
D#||-----------------------|----------------------|----------------------|------------------------|


                                                                 
--15----14----------15----|--14----||
--------------15----------|--------||
--------------------------|--------||
--------------------------|--------||
--------------------------|--------||
--------------------------|--------||


Mi ilusión no pasó 
y me he dado cuenta
de que no te tengo y siento una ausencia
y es que he dado tanto por  estar junto a tí.

Trato de convecerte con mi arte a cuestas
no me canso de darte algo que a mí me llena
mi regalo es éste 
ábrelo y disfruta


ESTRIBILLO x 2

            
            
Suggest correction
Creating personal tab
Creating personal tab
You can edit any tab online and save it as your Personal.

You can edit, replace or remove any tab part or add personal notes – all changes will be seen only by you.

Personal tabs can be accessed anytime from any device, even offline.
Learn more »
Give kudos to tab author, rate the tab!
1 2 3 4 5
comments
print report bad tab
guest
Wanna post a correction for this tab? Suggest correction