Oops, an error
Loading. Please wait.

Ya Nada Volverá A Ser Como Antes bass

109 views 6 this week
no commentswrite comment
1 2 3 4 5
3 more votes to show rating
add to favorites
×
Save as Personal and add changes to this tab that will be seen only by you. Learn more ›
×
You can save this tab as Personal to edit and correct it or add notes. All changes will be seen only by you. Learn more »
launch autoscroll
font size
0
reset
guitar tuner
edit
Autoscroll
slow
fast
+/-
esc
set tempo
stop
Verso (Hoy quiero ir a encontrar...)

G ------------------------------|--------------------------
A -----------------------3-333--|--------------------------
D 5-555----------2-222----------|--------------------------
E -------5-555------------------|--------------------------
						X6
Puente (Y a pesar de todo...) 

          Variación al final de la sexta
G --------|-----------------------------|------------------
A 4-------|----------4444444---3333333--|------------------
D ?5-555--|-5555555---------------------|------------------
E --------|-----------------------------|------------------
	     X6						x1

Coro (Ya nada volverá a ser como antes...)

G ------------------------------------------|--------------
A ------------------------------------------|--------------
D 5-5----5-5----5-5----5-5----5-5----5-5----|--------------
E ---3-4----3-4----3-4----7-6----7-6----7-6-|--------------
								   X1

Verso (Tras una sombra gris...)

G ------------------------------|--------------------------
A -----------------------3-333--|--------------------------
D 5-555----------2-222----------|--------------------------
E -------5-555------------------|--------------------------
						X6
Puente (Y a pesar de todo...) 

          Variación al final de la sexta
G --------|-----------------------------|------------------
A 4-------|----------4444444---3333333--|------------------
D ?5-555--|-5555555---------------------|------------------
E --------|-----------------------------|------------------
	     X6						x1

Coro (Ya nada volverá a ser como antes...)

G ------------------------------------------|--------------
A ------------------------------------------|--------------
D 5-5----5-5----5-5----5-5----5-5----5-5----|--------------
E ---3-4----3-4----3-4----7-6----7-6----7-6-|--------------
								   X1
Suggest correction
Creating personal tab
Creating personal tab
You can edit any tab online and save it as your Personal.

You can edit, replace or remove any tab part or add personal notes – all changes will be seen only by you.

Personal tabs can be accessed anytime from any device, even offline.
Learn more »
Give kudos to tab author, rate the tab!
1 2 3 4 5
comments
print report bad tab
guest
Wanna post a correction for this tab? Suggest correction