Oops, an error
Loading. Please wait.

Ya Nada Volverá A Ser Como Antes tab

146 views 1 this week
no commentswrite comment
1 2 3 4 5
3 more votes to show rating
add to favorites
×
Save as Personal and add changes to this tab that will be seen only by you. Learn more ›
×
You can save this tab as Personal to edit and correct it or add notes. All changes will be seen only by you. Learn more »
launch autoscroll
font size
0
reset
how to read this tab
guitar tuner
edit
Autoscroll
slow
fast
+/-
esc
set tempo
stop
Holaps!! ste tema esta dedicado a un nuevo grupo de amigos q stoy
conocien2 de apoco, xiruK, Anita y en especial a la Negrita ^^!!
q gracias a ella conoci ste tema... muxos salu2s xD!!

 SOL# M                              RE #M
 Hoy            Quiero ir a encontrar
e|-------------------------------------------|
b|------1--------1---------------------------|
g|---1-----1--------1-------0------3---1--0--|
d|-------------------------------------------|
a|-------------------------------------------|
E|-------------------------------------------|

DO #M                                SOL# M
Todo            Lo que hay dentro de mi
e|------1--------1---------------------------|
b|---2-----2--------2--------------1---2--1--|
g|--------------------------1----------------|
d|-------------------------------------------|
a|-------------------------------------------|
E|-------------------------------------------|

DO #M       RE #M                 SOL #M        DO #M
Sacar           Toda esa          sensibilidad
e|------1--------------------------------------1----------|
b|---2-----2-----------------------------1--2----4-2-----1|
g|---------------1--3--1-----------1--3--------------1-3--|
d|--------------------------------------------------------|
a|--------------------------------------------------------|
E|--------------------------------------------------------|

X                 SOL #M       RE #M           SOL #M
Que me acerque a ti            Que me lleve allí
e|--------------------------------------------------------|
b|--------------------1------------------------1--2--1----|
g|-----------------1-----1----1--3--1----1--3-------------|
d|--------------------------------------------------------|
a|--------------------------------------------------------|
E|--------------------------------------------------------|

----esta parte son solo acordes xD!!----

FA
Y a pesar d todo
      LA #m
Me pregunto quiero ir
FA                    LA #m                    RE #M
Y al vivir m oculto mis defectos para poder dormir

Coro:
          SOL #M               RE #M
YA NADA VOLVERA A SER COMO ANTES
         DO #M              RE #M
NUNCA DEJARE QUE NADA ME CAMBIE
FA #M       DO #M                      RE #M
ESTAREMOS CONOCIENDO NUESTRA PARTE ORIGINAL
          SOL #M                  RE #M
YA NUNCA VOLVERE A SER COMO ANTES
         DO #M                 RE #M
NUNCA DEJARE QUE NADA ME CAMBIE
FA #M       DO #M                       RE# 
ESTAREMOS CONOCIENDO NUESTRA PARTE DE VERDAD

SOL# M                              RE #M
 Tras            Una sombra gris
e|-------------------------------------------|
b|------1--------1---------------------------|
g|---1-----1--------1-------0------3---1--0--|
d|-------------------------------------------|
a|-------------------------------------------|
E|-------------------------------------------|

DO #M                                SOL# M
Que              No me deja ver
e|------1--------1---------------------------|
b|---2-----2--------2--------------1---2--1--|
g|--------------------------1----------------|
d|-------------------------------------------|
a|-------------------------------------------|
E|-------------------------------------------|

DO #M       RE #M                 SOL #M        DO #M
Podré           esperar q pase          algo hoy
e|------1--------------------------------------1----------|
b|---2-----2-----------------------------1--2----4-2-----1|
g|---------------1--3--1-----------1--3--------------1-3--|
d|--------------------------------------------------------|
a|--------------------------------------------------------|
E|--------------------------------------------------------|

X                 SOL #M       RE #M           SOL #M
Con lo que tengo aquí          Y no quiere salir
e|--------------------------------------------------------|
b|--------------------1------------------------1--2--1----|
g|-----------------1-----1----1--3--1----1--3-------------|
d|--------------------------------------------------------|
a|--------------------------------------------------------|
E|--------------------------------------------------------|

-----acordes ^^!!-----

FA
Y a pesar d todo
      LA #m
Me pregunto quiero ir
FA                    LA #m                    RE #M
Y al vivir m oculto mis defectos para poder dormir

Coro:
          SOL #M               RE #M
YA NADA VOLVERA A SER COMO ANTES
         DO #M              RE #M
NUNCA DEJARE QUE NADA ME CAMBIE
FA #M       DO #M                      RE #M
ESTAREMOS CONOCIENDO NUESTRA PARTE ORIGINAL
          SOL #M                  RE #M
YA NUNCA VOLVERE A SER COMO ANTES
         DO #M                 RE #M
NUNCA DEJARE QUE NADA ME CAMBIE
FA #M       DO #M                       RE# 
ESTAREMOS CONOCIENDO NUESTRA PARTE DE VERDAD
FA #M           DO #M               RE#         SOL# 
ESTAREMOS CONOCIENDO NUESTRA PARTE ORIGINAL

-eso es todo, tambien se puede afinar la guitarra por Sol#
y tocarla por La--cualquier duda escribirme ^^!!

            
            
Suggest correction
Creating personal tab
Creating personal tab
You can edit any tab online and save it as your Personal.

You can edit, replace or remove any tab part or add personal notes – all changes will be seen only by you.

Personal tabs can be accessed anytime from any device, even offline.
Learn more »
Give kudos to tab author, rate the tab!
1 2 3 4 5
comments
print report bad tab
guest
Wanna post a correction for this tab? Suggest correction