Oops, an error
Loading. Please wait.

Puentecito De Mi Río tab

60 views 1 this week
no commentswrite comment
1 2 3 4 5
3 more votes to show rating
add to favorites
×
Save as Personal and add changes to this tab that will be seen only by you. Learn more ›
×
You can save this tab as Personal to edit and correct it or add notes. All changes will be seen only by you. Learn more »
launch autoscroll
font size
0
reset
how to read this tab
guitar tuner
edit
Autoscroll
slow
fast
+/-
esc
set tempo
stop
Esta es mi transcripsion del tema espero q les guste
suena bastante parecida ala version original

Puentecito de mi río

la version original del tema esta en D (Re)

Intr.

e--10----10-----10--10--9--9--7--7--5--7--9--7--5--5-|
B-----12----12--12--12--10-10-9--9--7--9--10-9--7--7-| x2

e-9----9----9--9---7--9---7--7--5--7--9--7--5--5-----
B---10---10-10-10--9--10--9--9--7--9--10-9--7--7-----

e--5-5-5-5-5-------5---7--5---------------
B------------8-7-8---8------8-7-5-8-7-----
G-----------------------------------7-----
D-----------------------------------7-----
A-----------------------------------5-----
E---------------------------------------

Esta es la parte q va en medio
(de esta pate no estoy muy seguro)

e--2-2-3-5-5-5-5-7-5-3-3-3-3-5-3-2-2----------
B--3-3-5-7-7-7-7-8-7-5-5-5-5-7-5-3---3--------
G--------------------------------------2------
D----------------------------------------4----
A------------------------------------------5--
E---------------------------------------------

Dudas o comentarios a mi mail. Marcos _lg18@

            
            
Suggest correction
Creating personal tab
Creating personal tab
You can edit any tab online and save it as your Personal.

You can edit, replace or remove any tab part or add personal notes – all changes will be seen only by you.

Personal tabs can be accessed anytime from any device, even offline.
Learn more »
Give kudos to tab author, rate the tab!
1 2 3 4 5
comments
print report bad tab
guest
Wanna post a correction for this tab? Suggest correction