Oops, an error
Loading. Please wait.

Como Debería Ser tab

version 4
version 4

Whole song

by Carajo
67 views 1 this week
no commentswrite comment
1 2 3 4 5
3 more votes to show rating
add to favorites
×
Save as Personal and add changes to this tab that will be seen only by you. Learn more ›
×
You can save this tab as Personal to edit and correct it or add notes. All changes will be seen only by you. Learn more »
launch autoscroll
font size
0
reset
how to read this tab
guitar tuner
edit
Autoscroll
slow
fast
+/-
esc
set tempo
stop
Afinar en:
E]C
B]G
G]Eb
D]Bb
A]F
E]Bb

Intro
C-------------------------------------
G-------------------------------------------------
Eb----------------------------------------------
Bb-------------------------------------------------
F---022-x-022-x-022--5-7-3---022222...--5--7--3------
Bb--022-x-022-x-022--5-7-3---022222...--5--7--3-------------
pm                            ........

(Riff 1)
C-----------------------------*------------------
G-----------------------------*--------------------
Eb----------------------------*------------------
Bb-------------------------X3-*-----------------
F---022-x-022-x-022--5-7-3----*-022-022-022--5-7-3----------
Bb--022-x-022-x-022--5-7-3----*-022-022-022--5-7-3----------


SOMOS LA LEÑA QUE LE DARA VIDA AL FUEGO, COMO ESLABONES COSTRUYENDO LA CADENA.
C----------------------------------------------
G---------------------------------------------
Eb----------------------------------------X2---
Bb-------5---------4------------------------------
F----------------------------3---------111-----
Bb--0222---22--022---22--022---22--022--------------
pm  ....   ..  ...   ..  ...   ..  ...


LAS TRABAS NO ESPERADAS
C--------------------------------------------------------
G-----------------------------------------------------
Eb-----------------------------------------------------
Bb--------5---------4-----------------------------
F-----------------------------3---------111-----------
Bb-022222----022222----022222----022222----------------


DESCOMPAGINAN EL CURSO DE LA INTENCION,
LAS QUE QUISIERAMOS NO PELEAR,PERO NOS TENEMOS QUE DEFENDER
C-----------------------------------------------------------
G---------------------------------------------------------
Eb-----------------------------------------------------------
Bb--------5--------------4-------------------------------------
F---------------------------------------3--------------111----
Bb-022222---2222--022222---2222--022222---2222--022222-------

(Riff 1) x4
UNA VEZ, OTRA VEZ Y UNA VEZ MAS.


TODO LO QUE SOÑAS, LA REALIDAD LO ESTORBARA, CONTRA LO QUE PREFIERAS.
C-------------------------------------
G----------------------------------
Eb--------7-----------------------
Bb--2--5--7--77--99--2--5--4--3-----------
F---2--5--5--77--99--2--5--4--3--------
Bb--2--5--0--77--99--2--5--4--3-------------


MAS NOS IMPORTA LA MANERA, QUE EL MERO LLEGAR.
SOLO ES EL HECHO DE CUMPLIR BIEN EL PROCESO.
C----------------------------------------------
G---------------------------------------------
Eb----------------------------------------X2---
Bb-------5---------4------------------------------
F----------------------------3---------111-----
Bb--0222---22--022---22--022---22--022--------------
pm  ....   ..  ...   ..  ...   ..  ...

MAS TRABAS NOS ESPERARAN
C--------------------------------------------------------
G-----------------------------------------------------
Eb-----------------------------------------------------
Bb--------5---------4-----------------------------
F-----------------------------3---------111-----------
Bb-022222----022222----022222----022222----------------


Y A PESAR DE LA DIFICULTAD DE SEGUIR,
DESARROLLAMOS LA CAPACIDAD DE PODER RESISTIR
C-----------------------------------------------------------
G---------------------------------------------------------
Eb-----------------------------------------------------------
Bb--------5--------------4-------------------------------------
F---------------------------------------3--------------111----
Bb-022222---2222--022222---2222--022222---2222--022222-------

Riff 1 x4
LO ANORMAL, LA MALDAD, LO VULGAR DE EXISTIR!!!.


TODO LO QUE SOÑAS, LA REALIDAD LO ESTORBARA,
CONTRA LO QUE PREFIERAS,LA REALIDAD LO ESTORBARA
C---------------------------------------------------
G---------------------------------------------------------
Eb--------7-----------------------5--7--------5--7--------
Bb--2--5--7--77--99--2--5--4--3---5--7--7--5--5--7--7-------
F---2--5--5--77--99--2--5--4--3---3--5--7--5--3--5--7---0-2--
Bb--2--5--0--77--99--2--5--4--3---------7--5--------7---0-2---


C-------------------------------------
G------------------------------------------------
Eb---------------------------------------------
Bb-------------X4------------------------X4------------
F---022-x-022------022-x-022-x-022-----------
Bb--022-x-022------022-x-022-x-022-530232----------------
pm                                 ......

C-------------------------------------
G----------------------------------
Eb-------------------------------
Bb--------------X8---------------
F---------------------------
Bb-20202032020------------------------------

(Sin distorsión)
TODO LO QUE SOÑAS LA REALIDAD LO ESTORBARA CONTRA LO QUE PREFIERAS
C----------------------------------------
G---8--12--7--22--44--8--12-11--10----------------
Eb--9--12--7--22--44--9--12-11--10-------------
Bb--9--12--7--22--44--9--12-11--10------------
F---7--10--5--00--22--7--10-9---8--------
Bb------------------------------------------

TODO LO QUE SOÑAS LA REALIDAD LO ESTORBARA CONTRA LO QUE PREFIERAS,
LA REALIDAD LO ESTORBARA? LA REALIDAD LO ESTORBARA!!!
C-------------------------------*--------------------------------
G-------------------------------*-------------------------------
Eb--------7---------------------*--5--7--------5--7------------
Bb--2--5--7--77--99--2--5--4--3-*--5--7--7--5--5--7--7--X3-----
F---2--5--5--77--99--2--5--4--3-*--3--5--7--5--3--5--7----
Bb--2--5--0--77--99--2--5--4--3-*--------7--5--------7------


C-----------------------------*------------------
G-----------------------------*------------------------
Eb----------------------------*-------------------------
Bb-------------------------X2-*--------------------------
F---022-x-022-x-022--5-7-3----*-----------------5-7-3-2----
Bb--022-x-022-x-022--5-7-3----*-20202032020022--5-7-3-2-----

            
            
Suggest correction
Creating personal tab
Creating personal tab
You can edit any tab online and save it as your Personal.

You can edit, replace or remove any tab part or add personal notes – all changes will be seen only by you.

Personal tabs can be accessed anytime from any device, even offline.
Learn more »
Give kudos to tab author, rate the tab!
1 2 3 4 5
comments
print report bad tab
guest
Wanna post a correction for this tab? Suggest correction