Oops, an error
Loading. Please wait.

Entre La Fe Y La Razón tab

version 2
version 2

Whole song

by Carajo
250 views 1 this week
no commentswrite comment
1 2 3 4 5
3 more votes to show rating
add to favorites
×
Save as Personal and add changes to this tab that will be seen only by you. Learn more ›
×
You can save this tab as Personal to edit and correct it or add notes. All changes will be seen only by you. Learn more »
launch autoscroll
font size
0
reset
how to read this tab
guitar tuner
edit
Autoscroll
slow
fast
+/-
esc
set tempo
stop
Hola a todos? por las dudas les aclaro que me
concentre mas en el solo? no se si está muy bien,
pero intente hacerlo lo mas parecido posible!...
ademas es la primer cancion que bajo?cualquier
cosa manden un e-mail!...
Suerte y espero que les guste!

D#5         C#5       G#5
  quien nos da el valor
D#5       C#5      G#5
  sin perder el amor?
D#5   C#5         G#5
  esa es la cuestion,
B5         C#5        D#5
  entre la fe y la razon.

E |--1-1-------1----------1---1----------
A |--1-1-------1----------1---1----------
D |-------4-4------4-4-----3---3--4-3-1--
G |--------------------------------------
B |--------------------------------------
E |--------------------------------------

E |--4-4-------4----------4---4--1--3----
A |------------------------------1--3----
D |-------6-6------6-6------6------------
G |--------------------------------------
B |--------------------------------------
E |--------------------------------------


D#5    C#5         G#5
  Resolver la ecuacion,
D#5    C#5       G#5
  logica perfeccion,
D#5     C#5        G#5
  otra ves la cuestión,
B5         C#5        D#5
  entre la fe y la razon.

B5                        D#5
  No hay batalla leal, ni guerra honesta
B5                D#5
  al querer disputar aquello indispensable,
B5              D#5     C#5         B5
  no se puede ganar, no se puede perder
             A#5
lo fundamental, vital escencia.

E |--1-1-------1----------1---1----------
A |--1-1-------1----------1---1----------
D |-------4-4------4-4-----3---3--4-3-1--
G |--------------------------------------
B |--------------------------------------
E |--------------------------------------

E |--4-4-------4----------4---4--1--3----
A |------------------------------1--3----
D |-------6-6------6-6------6------------
G |--------------------------------------
B |--------------------------------------
E |--------------------------------------


D#5        C#5     G#5
  Como un gran soñador,
D#5       C#5     G#5    B5-C#5
  como un calculador,
D#5         C#5          G#5
  sabio es quien lo intento,
B5       C#5        G#5
  por la fe o la razon.


B5                        D#5
  No hay batalla leal, ni guerra honesta
B5                D#5
  al querer disputar aquello indispensable,
B5              D#5     C#5         B5
  no se puede ganar, no se puede perder
             A#5
  lo fundamental, vital escencia.


B5                      F#m
  Solo es nuestra habilidad

  vanagloriandose,
B5                       F#m
  nuestro el logro al aceptar

  cuando no hay acuerdo.
B5                     D#5
  alma, espiritu y pasion.

  ciencia, estudio y solucion.
B5                      A#5
  por donde quieras llegar,

  ¡espero que lo encuentres!

E |--1-1-------1----------1---1----------
A |--1-1-------1----------1---1----------
D |-------4-4------4-4-----3---3--4-3-1--
G |--------------------------------------
B |--------------------------------------
E |--------------------------------------

E |--4-4-------4----------4---4--1--3----
A |------------------------------1--3----
D |-------6-6------6-6------6------------
G |--------------------------------------
B |--------------------------------------
E |--------------------------------------


D#5          C#5     G#5
   quien nos da el valor?
D#5          C#5     G#5
   quien nos da el amor?
D#5   C#5        G#5
  esa es la cuestion,
B5         C#5        D#5
  entre la fe y la razon.


AGUANTE CARAJO Y GREEN DAY!!!

            
            
Suggest correction
Creating personal tab
Creating personal tab
You can edit any tab online and save it as your Personal.

You can edit, replace or remove any tab part or add personal notes – all changes will be seen only by you.

Personal tabs can be accessed anytime from any device, even offline.
Learn more »
Give kudos to tab author, rate the tab!
1 2 3 4 5
comments
print report bad tab
guest
Wanna post a correction for this tab? Suggest correction