Oops, an error
Loading. Please wait.

Dolor Y Pasión bass

version 1
version 1

Whole song

Interactive

49 views 1 this week
no commentswrite comment
1 2 3 4 5
3 more votes to show rating
add to favorites
×
Save as Personal and add changes to this tab that will be seen only by you. Learn more ›
×
You can save this tab as Personal to edit and correct it or add notes. All changes will be seen only by you. Learn more »
launch autoscroll
font size
0
reset
guitar tuner
edit
Autoscroll
slow
fast
+/-
esc
set tempo
stop
va dedicada pa la gente de bucaramanga.....chulo y mama
todobien!!!

intro:

G----------------------------------------
D----------------------------------------
A-------3-3-3-------5-5-3-0-0------------
E-3-3-3-------0-0-0----------------------


G----------------------------------------
D----------------------------------------
A-------0-0-0--2-2-2--3-3-3--------------
E-3-3-3----------------------------------


aqui viene la voz...
G----------------------------------------
D----------------------------------------
A-------3-3-3-------5-5-3-0-0------------\
E-3-3-3-------0-0-0---------------------- \
                                          /   x2
G----------------------------------------/
D----------------------------------------
A-------0-0-0--2-2-2--3-3-3--------------
E-3-3-3----------------------------------
coro

G----------------------------------------
D-----------------2-2-2-2----------------
A---------5-5-5-5---------3-3-3-3--------
E-3-3-3-3--------------------------------

G----------------------------------------
D----------------------------------------
A------------------7-77-7-7-7-77-7-7-----
E-3-3-3-3--5-5-5-5----------------------- fin coro

estrofas:

G----------------------------------------
D----------------------------------------
A-------3-3-3-------5-5-3-0-0------------
E-3-3-3-------0-0-0----------------------\
                                          \
G---------------------------------------- /   x3
D----------------------------------------/
A-------0-0-0--2-2-2--3-3-3--------------
E-3-3-3----------------------------------


coro

G----------------------------------------
D-----------------2-2-2-2----------------
A---------5-5-5-5---------3-3-3-3--------
E-3-3-3-3--------------------------------

G----------------------------------------
D----------------------------------------
A------------------7-77-7-7-7-77-7-7-----
E-3-3-3-3--5-5-5-5----------------------- fin coro


puente:

G----------------------------------------
D----------------------------------------
A-3-2-5-5-55-5-x3--3-2-0-0-0000----------
E----------------------------------------


coro

G----------------------------------------
D-----------------2-2-2-2----------------
A---------5-5-5-5---------3-3-3-3--------
E-3-3-3-3--------------------------------\
                                          \
G---------------------------------------- /   x4
D----------------------------------------/
A------------------7-77-7-7-7-77-7-7-----
E-3-3-3-3--5-5-5-5----------------------- fin coro


letra:


Dolor, eres todo lo que tengo tuve o haya tenido
Yo te pido, que no me hagas nunca más sentir dolor
Dolor, se separa del placer por una línea delgada
Otra velada, confrontada con la autoflagelación

Yo no tengo nada más que ofrecer
Conmigo obtienes sólo lo que ves
Desde hace un tiempo quiero
Ser un poco más sincero
Todos tenemos algo que esconder
Si te portas bien te dejo ver
Solamente el tiempo pudo
Hacerme un poco más agudo

Pasión, cuanto tiempo dejarás que esté mi cama vacía
Otro día, que tendré que soportar sin ti, pasión.
Pasión, no sé como ni porqué no entiendo dónde ni cuándo
Esperando, consolarme con la autosatisfacción.

Dolor y Pasión, el odio el amor
Pensar con la mente o el corazón
Arriba y abajo, lo bueno, lo malo
Izquierda, derecha, tú y yo

espero que para todos este bien.

            
            
Suggest correction
Creating personal tab
Creating personal tab
You can edit any tab online and save it as your Personal.

You can edit, replace or remove any tab part or add personal notes – all changes will be seen only by you.

Personal tabs can be accessed anytime from any device, even offline.
Learn more »
Give kudos to tab author, rate the tab!
1 2 3 4 5
comments
print report bad tab
guest
Wanna post a correction for this tab? Suggest correction