Oops, an error
Loading. Please wait.

Belleza De Cantina tab

196 views 1 this week
no commentswrite comment
1 2 3 4 5
3 more votes to show rating
add to favorites
×
Save as Personal and add changes to this tab that will be seen only by you. Learn more ›
×
You can save this tab as Personal to edit and correct it or add notes. All changes will be seen only by you. Learn more »
launch autoscroll
font size
0
reset
how to read this tab
guitar tuner
edit
Autoscroll
slow
fast
+/-
esc
set tempo
stop
q pex raza como stan , spero q chidop, les paso sta
rola de los cardenales, jeje no es mi fuerte pero
m la pidieron con todo y solos asi q aki sta, es
1000% correcta y no le falta nada, el intro y el
solo , se repiten dos veces y ya queda eso
es todo "UN SALUDO A LA RAZA DEL NORTE"
simon q si carnales, a la facu de derecho campus

"UAEM"   amis amiwis bogart, yesika, alex, y rafa


intro x 2

E------------------------------------------------
A------------------------------------------------
D------------------------------------------------
G-------------10---------------10----------------
B-13--13-13-10--13-13--13-13-10--13-13-13-13-13--
e---10---------------10--------------------------


E------------------------------------------------
A------------------------------------------------
D------------------------------------------------
G------------------------------------------------
B-11-10-11-13-11-10-11-13---13-11----------------
e-------------------------10---------------------


F Am A# C (X2)

           F
No te preocupes mi amor
           Am
es verdad la voy a ver
            A#                  C
es verdad que ella fue toda mi vida
         A#
pero recuerda tambien
              F
que cuando aqui te encontre
         G                             C
yo me moria de dolor a causa de tu partida


          F
No me prohibas salir
          Am
tienes razon al sentir
           A#                 C
todos los celos del mundo mi vida
          A#
voy solo para afrontar
             F
que aquello se termino
            G                                   C
viendo de frente a quien fue la causa de mi desdicha


                     F
Se que sigue tan hermosa
                    Am
se que igue tan graciosa
                      A#
pero es solo su envoltura
                          C
lo que lleva dentro es basura
                      F                      Am
me dicen que es una diosa una reina la gran cosa
                         A#
pero aunque sigue tan divina
                     C          F
sera siempre una belleza de cantina


solo:        F Am A# C (X2)


E------------------------------------------------
A------------------------------------------------
D------------------------------------------------
G-------------10---------------10----------------
B-13--13-13-10--13-13--13-13-10--13-13-13-13-13--
e---10---------------10--------------------------


E------------------------------------------------
A------------------------------------------------
D------------------------------------------------
G------------------------------------------------
B-11-10-11-13-11-10-11-13---13-11----------------
e-------------------------10---------------------


F Am A# C (X2)


Se repite toda

            
            
Suggest correction
Creating personal tab
Creating personal tab
You can edit any tab online and save it as your Personal.

You can edit, replace or remove any tab part or add personal notes – all changes will be seen only by you.

Personal tabs can be accessed anytime from any device, even offline.
Learn more »
Give kudos to tab author, rate the tab!
1 2 3 4 5
comments
print report bad tab
guest
Wanna post a correction for this tab? Suggest correction