Oops, an error
Loading. Please wait.

Nuevamente El Amor tab

36 views 3 this week
no commentswrite comment
1 2 3 4 5
3 more votes to show rating
add to favorites
×
Save as Personal and add changes to this tab that will be seen only by you. Learn more ›
×
You can save this tab as Personal to edit and correct it or add notes. All changes will be seen only by you. Learn more »
launch autoscroll
font size
0
reset
how to read this tab
guitar tuner
edit
Autoscroll
slow
fast
+/-
esc
set tempo
stop
Q PEx bandota aki les djo sto muxos la esperaban y porfin ya
sta, el intro lo hacen con acordeon,pero es = en la guitarra
van ps c la kiero dedikr a "ITZEL GUADALUPE","no t vas no,no
m dejes solo"
 t kiero muxo muxo muxo muxoooooooooo


y dice asi


E------------------------------------------------------------
A------------------------------------------------------------
D-12---------------------------------------------------------
G---9-12-----------------------------------------------------
B-------9-11-11-10-11-11-10-11-10-9-10-----------------------
e-------------------------------------12-10-10-10-10-12-10-10


E------------------------------------------------------------
A------------------------------------------------------------
D------------------------------------------------------------
G------------------------------------------------------------
B-13-12-12-13-13-12-13-12-10-9-12-10-10----------------------
e------------------------------------------------------------


   G
no puedo creer que a mi edad
  Bm
nuevamente el amor toque
         C             D
a las puertas de mi corazon


       G
tanto tiempo solo pase
    Bm
pero a despertado otra vez
        C
ese sentimiento de amar
             D
que crei perdido

     C
y aquella ilusion de ayer
   G
vuelve a renacer en mi
    A
mas no se por cuanto tiempo
                 D
porque tu te quieres ir

    G
no t vayas no
             Bm
no me dejes nunca
               C
no te estoy mientiendo

al decir,me enamore
       D
como un niño

       G
no te vayas no
         Bm
no me dejes solo
                 C
dale tiempo a tu corazon
               D
a enamorarse de mi
            G
no te vayas no


solo:

E------------------------------------------------------------
A------------------------------------------------------------
D------------------------------------------------------------
G------------------------------------------------------------
B-------9-11-11-10-11-11-10-11-10-9-10-----------------------
e-------------------------------------12-10-10-10-10-12-10-10


E------------------------------------------------------------
A------------------------------------------------------------
D------------------------------------------------------------
G------------------------------------------------------------
B-13-12-12-13-13-12-13-12-10-9-12-10-10----------------------
e------------------------------------------------------------


se repite
Suggest correction
Creating personal tab
Creating personal tab
You can edit any tab online and save it as your Personal.

You can edit, replace or remove any tab part or add personal notes – all changes will be seen only by you.

Personal tabs can be accessed anytime from any device, even offline.
Learn more »
Give kudos to tab author, rate the tab!
1 2 3 4 5
comments
print report bad tab
guest
Wanna post a correction for this tab? Suggest correction