Oops, an error
Loading. Please wait.

Soy Lo Peor bass

63 views 1 this week
no commentswrite comment
1 2 3 4 5
3 more votes to show rating
add to favorites
×
Save as Personal and add changes to this tab that will be seen only by you. Learn more ›
×
You can save this tab as Personal to edit and correct it or add notes. All changes will be seen only by you. Learn more »
launch autoscroll
font size
0
reset
guitar tuner
edit
Autoscroll
slow
fast
+/-
esc
set tempo
stop
otra de las peticiones que tenia aki se las dejo completa esta muy
sencillla espero sea de su agrado sigan votando pa q suba + rolas
de bass o de guitarra, bateria buenoa pues ahi estamos saludos


INTRO:

G--------------------------------------------------------------------
D-------5--5-----------------------8----8-5--5-----------------------
A--8--8---5--5-6--6-5-6-7-8--8----8--6-8----5--5-6--6-5-6-7-8-6-5----
E-6--6-----------6----------8--8-6-----------------6--------------8-6


G--------------------------------------------------------------------
D-------5--5-7-----------------8----5--------------------------------
A--8--8---5----5--5--5--6--6----8-8---5---10-8---8-6-----------------
E-6--6-----------5--5--5--6--6---6------8------8-----8-5-------------
  Entre lo peor de lo peor.........


G--------------------------------------------------------------------
D-------5--5-7-----------------8----5--------------------------------
A--8--8---5----5--5--5--6--6----8-8---5---10--10-8---8-6-------------
E-6--6-----------5--5--5--6--6---6------8----8-----8-----8-5---------
   Entre lo peor de lo peor..........


coro:


G--------------------------------------------------------------------
D----------7-7---7-7---5-5---5-5---3-3---3-3-------------------------
A--8---8-8-----7-----7-----5-----5-----3-----3---6-------------------
E-6--6---------------------------------------------6-----------------
   Soy lo peor y no hagas caso........


G--------------------------------------------------------------------
D--------------3----------5---5----------------8---------------------
A-6-5-3--3----3--3-5--5----5-5-6--6-7-8--8----8--8-6-----------------
E-------3--3-1-------5--5---3---6-------8--8-6-------8---------------
   porque a la hora de ............


puente:


G--------------------------------------------------------------------
D--------8-5--5--------------------------5--5------------------------
A--8--6-8----5--5-6--6-5-6-7-8--8-8----8---5--5-6--6-5-6-7-8-6-5-----
E-6--6--------------6----------8----8-6-----------6--------------8---

coro:

G--------------------------------------------------------------------
D----------7-7---7-7---5-5---5-5---3-3---3-3-------------------------
A--8---8-8-----7-----7-----5-----5-----3-----3---6-------------------
E-6--6---------------------------------------------6-----------------
   Soy lo peor y no hagas caso........


G--------------------------------------------------------------------
D--------------3----------5---5----------------8---------------------
A-6-5-3--3----3--3-5--5----5-5-6--6-7-8--8----8--8-6-----------------
E-------3--3-1-------5--5---3---6-------8--8-6-------8---------------
   porque a la hora de ............


final:

G---------------------------------------------
D----8-7-5---5--------------------------------
A---8------5---5-6--6-5-6-7-8-6-5-------------
E-6----------------6--------------8-6---------

            
            
Suggest correction
Creating personal tab
Creating personal tab
You can edit any tab online and save it as your Personal.

You can edit, replace or remove any tab part or add personal notes – all changes will be seen only by you.

Personal tabs can be accessed anytime from any device, even offline.
Learn more »
Give kudos to tab author, rate the tab!
1 2 3 4 5
comments
print report bad tab
guest
Wanna post a correction for this tab? Suggest correction