Oops, an error
Loading. Please wait.

Me Extrañarás tab

36 views 1 this week
no commentswrite comment
1 2 3 4 5
3 more votes to show rating
add to favorites
×
Save as Personal and add changes to this tab that will be seen only by you. Learn more ›
×
You can save this tab as Personal to edit and correct it or add notes. All changes will be seen only by you. Learn more »
launch autoscroll
font size
0
reset
how to read this tab
guitar tuner
edit
Autoscroll
slow
fast
+/-
esc
set tempo
stop
La cancion anterior que enviaron esta en un tono mas bajo...
Esta en Rem, solo pasenla a Mim... ese es el tono original con
el que tocan...
Esta es el tab de la primera guitarra, espero les sirva... esta
buena...

Intro de la cancion

1|---------------------7-10-9-9-9---|
2|-----7----7-8-8----8--------------|
3|---7----9--------9----------------|
4|-9--------------------------------|
5|----------------------------------|
6|----------------------------------|

1|-7p9p7----------------9-7-7-7---|
2|------10-8-7-7------7-----------|
3|------------------7-------------|
4|----------------9---------------|
5|--------------------------------|
6|--------------------------------|

1|----7------------------7------------|
2|-10---10-8-7---------7---10-10-10---|
3|-------------9-9---7----------------|
4|-----------------9------------------|
5|------------------------------------|
6|------------------------------------|

1|-------------------------|
2|-7p8p7---7-----------7---|
3|-------9---9-8-7---8-----|
4|-----------------9-------|
5|-------------------------|
6|-------------------------|

1|---------------------7-10-9-9-9---|
2|-----7----7-8-8----8--------------|
3|---7----9--------9----------------|
4|-9--------------------------------|
5|----------------------------------|
6|----------------------------------|

1|-7p9p7----------------9-7-7-7---|
2|------10-8-7-7------7-----------|
3|------------------7-------------|
4|----------------9---------------|
5|--------------------------------|
6|--------------------------------|

1|----7------------------7------------|
2|-10---10-8-7---------7---10-10-10---|
3|-------------9-9---7----------------|
4|-----------------9------------------|
5|------------------------------------|
6|------------------------------------|

1|----------------------7-7------|
2|-8p10p8-7-8-7---------7-7------|
3|--------------9-7-7------------|
4|-------------------------------|
5|-------------------------------|
6|-------------------------------|

  Me extrañaras igual que yo
1|---------------------------|
2|---------------------------|
3|---------------------------|
4|-12-12-12---11-11-11---9---|
5|-10-10-10---9---9?-9---7---|
6|---------------------------|

1|-5---|
2|-5---|
3|-6---|
4|-5---|
5|-----|
6|-----|

  Te extraño tanto... si
1|----------------------------|
2|----------------------------|
3|----------------------------|
4|-14-14-14---12-12-12---11---|
5|-12-12-12---10-10-10---9----|
6|----------------------------|

             Y lloraras igual que yo
1|-7-----------------------------------------|
2|--10-8-7-8----7-8-7---7-8----7-8-7---------|
3|------------9-------9------9-------9-7-9---|
4|---------------------------------------9---|
5|-------------------------------------------|
6|-------------------------------------------|

  Estoy llorando por volverte a ver
1|-5---5---7---|
2|-5---5---7---|
3|-6---6---7---|
4|-5---5-------|
5|-------------|
6|-------------|

1|--------------------------|
2|-------7---7-10-8-7---8---|
3|-----8---9----------9-----|
4|-7-9----------------------|
5|--------------------------|
6|--------------------------|

  Aunque ahora otro ocupa mi lugar
1|-7-7-7---5-5-5---5-5-5---7-7-7---|
2|-8-8-8---5-5-5---7-7-7---7-7-7---|
3|-9-9-9---6-6-6---7-7-7---7-7-7---|
4|---------------------------------|
5|---------------------------------|
6|---------------------------------|

  Ahora ya es tarde para poder regresar
1|-7-7-7---5-5-5---5-5-5---7-7---|
2|-8-8-8---5-5-5---7-7-7---7-7---|
3|-9-9-9---6-6-6---7-7-7---7-7---|
4|-------------------------------|
5|-------------------------------|
6|-------------------------------|

  Me extrañaras cuando en las noches
  Quieras abrigo y no este mas junto a ti
1|---------------------------5---|
2|-8-10-7-8-5-7---7-5--------5---|
3|--------------8------------6---|
4|---------------------------5---|
5|-------------------------------|
6|-------------------------------|

  Y abrazaras sola a tu almohada
  Pensando en mi... amor
1|------------|
2|-10-8-7-----|
3|--------8---|
4|------------|
5|------------|
6|------------|

  Me extrañaras cada mañana
  Te de un beso y despiertes junto a mi
1|---------------------------5---|
2|-8-10-7-8-5-7---7-5--------5---|
3|--------------8------------6---|
4|---------------------------5---|
5|-------------------------------|
6|-------------------------------|

  Y lloraras igual que lloro... Recordandote
1|-----------------------------------------------------|
2|-----------------------------------------------------|
3|-----7-6-7-6---------------------------------6-7-6---|
4|---7---------9-7-9---9-7-9-7-------------7-9---------|
5|-9---------------------------9-7-9---7-9-------------|
6|-----------------------------------------------------|

  Recordandote... amor... Recordandote
1|------------------------------------------------------|
2|------7---7-------------------------------------------|
3|--------9---9-7-6-7---7-6-7-6-------------------------|
4|-7-9--------------------------9-7-9---9-7-9-7---------|
5|----------------------------------------------9-7-9---|
6|------------------------------------------------------|

1|-10-10-10-10-10-10-9-9---12-10-12-9---|
2|-12-----------------------------------|
3|--------------------------------------|
4|--------------------------------------|
5|--------------------------------------|
6|--------------------------------------|

1|-9-9-9-9-9-9-7-7---10-9-10-7---|
2|-7-----------------------------|
3|-------------------------------|
4|-------------------------------|
5|-------------------------------|
6|-------------------------------|

1|-7-7-7-7-7-7-6-6---9-7-9-7-9-10---14-12-----------7---|
2|-5-------------------------------------15-14------7---|
3|---------------------------------------------14-------|
4|------------------------------------------------------|
5|------------------------------------------------------|
6|------------------------------------------------------|

1|-10-10-10-10-10-10-9-9---12-10-12-9---|
2|-12-----------------------------------|
3|--------------------------------------|
4|--------------------------------------|
5|--------------------------------------|
6|--------------------------------------|

1|-9-9-9-9-9-9-7-7---10-9-10-7---|
2|-7-----------------------------|
3|-------------------------------|
4|-------------------------------|
5|-------------------------------|
6|-------------------------------|

1|-7-7-7-7-7-7-6-6---9-7-9-6---7-5-7---|
2|-5---------------------------7-5-7---|
3|-------------------------------------|
4|-------------------------------------|
5|-------------------------------------|
6|-------------------------------------| (Rep. Todo)


Para el final

1|-10-10-10-10-10-10-9-9---12-10-12-9---|
2|-12-----------------------------------|
3|--------------------------------------|
4|--------------------------------------|
5|--------------------------------------|
6|--------------------------------------|

1|-9-9-9-9-9-9-7-7---10-9-10-7---|
2|-7-----------------------------|
3|-------------------------------|
4|-------------------------------|
5|-------------------------------|
6|-------------------------------|

1|-7-7-7-7-7-7-6-6---9-7-9-7-9-10---14-12-----------7---|
2|-5-------------------------------------15-14------7---|
3|---------------------------------------------14-------|
4|------------------------------------------------------|
5|------------------------------------------------------|
6|------------------------------------------------------|(X3)

1|-10-10-10-10-10-10-9-9---12-10-12-9---|
2|-12-----------------------------------|
3|--------------------------------------|
4|--------------------------------------|
5|--------------------------------------|
6|--------------------------------------|

1|-9-9-9-9-9-9-7-7---10-9-10-7---|
2|-7-----------------------------|
3|-------------------------------|
4|-------------------------------|
5|-------------------------------|
6|-------------------------------|

1|-7-7-7-7-7-7-6-6---9-7-9-6---7-5-7-5-7-5-7-7---|
2|-5---------------------------7-5-7-5-7-5-7-7---|
3|-----------------------------------------------|
4|-----------------------------------------------|
5|-----------------------------------------------|
6|-----------------------------------------------|

Y eso es todo... facil verdad?... A sacarla ps....
Suggest correction
Creating personal tab
Creating personal tab
You can edit any tab online and save it as your Personal.

You can edit, replace or remove any tab part or add personal notes – all changes will be seen only by you.

Personal tabs can be accessed anytime from any device, even offline.
Learn more »
Give kudos to tab author, rate the tab!
1 2 3 4 5
comments
print report bad tab
guest
Wanna post a correction for this tab? Suggest correction