Oops, an error
Loading. Please wait.

Muñeco De Trapo tab

11 views 1 this week
no commentswrite comment
1 2 3 4 5
3 more votes to show rating
add to favorites
×
Save as Personal and add changes to this tab that will be seen only by you. Learn more ›
×
You can save this tab as Personal to edit and correct it or add notes. All changes will be seen only by you. Learn more »
launch autoscroll
font size
0
reset
how to read this tab
guitar tuner
edit
Autoscroll
slow
fast
+/-
esc
set tempo
stop
INTRO-

E------------------------------------------------------
B------------------------------------------------------
G------------------------------------------------------
D------------------------------------------------------
A------------------------------------------------------
E-0-2-3-5--3-2-3--2-0-2-0-0---0-2-3-5--3-2-3--2-0-2-0-0

E-----------------------------5-3-2-3-2-0-2------------
B------------------------------------------------------
G------------------------------------------------------
D------------------------------------------------------
A-0-2-3-5--3-2-3--2-0-2-0-0----------------------------
E------------------------------------------------------

E------------------------------------------------------
B------------------------------------------------------
G------------------------------------------------------
D------------------------------------------------------
A------------------------------------------------------
E-0-2-3-5--3-2-3--2-0-2-0-0---0-2-3-5--3-2-3--2-0-2-0-0

E----------------------8-7-8-10-8-7-12-11-12-14--------
B------------------------------------------------------
G------------------------------------------------------
D------------------------------------------------------
A-0-2-3-5--3-2-3--2-0----------------------------------
E------------------------------------------------------


G                        Em
Quién diría que estás de nuevo frente a mí,
C                                    D
pidiendo perdón por haberme hecho sufrir así,
G                        Em
Tú sabías que él no te amaba como yo,
C                                        D
preferiste el poder del dinero a cambio de este amor.

Em                     C
Y ahora regresas aquí, no quiero saber más de ti,
Am                                   D
me pides que vuelva contigo luego de tu traición

         G                                D
Si yo he sido para ti sólo un muñeco de trapo,
         Em                                D
como un juguete tú me usaste para pasar el rato,
            C                     G
pero no hay nada, nada, nada que hacer
         D                  Em
así como has venido puedes volver,
          C                              D
ahora soy el que rechaza tus besos, vete ya con él.


Si yo he sido para ti sólo un muñeco de trapo,
como un juguete tú me usaste para pasar el rato,
pero la vida da revancha lo ves
y ya no soy el mismo tonto de ayer,
es que he logrado salir adelante junto a otra mujer

(D#--E--E#--F--F#-F#)

E------------------------------------------------------
B------------------------------------------------------
G------------------------------------------------------
D------------------------------------------------------
A-0-2-3-5--3-2-3--2-0-2-0-0---0-2-3-5--3-2-3--2-0-2-0-0
E------------------------------------------------------

E--------------------------10-8-7-8-7-5-7--------------
B------------------------------------------------------
G------------------------------------------------------
D-0-2-3-5--3-2-3--2-0-2-0-0----------------------------
A------------------------------------------------------
E------------------------------------------------------

E------------------------------------------------------
B------------------------------------------------------
G------------------------------------------------------
D------------------------------------------------------
A-0-2-3-5--3-2-3--2-0-2-0-0---0-2-3-5--3-2-3--2-0-2-0-0
E------------------------------------------------------

E---------------------12-11-12-14-12-11-15-14-15-17----
B------------------------------------------------------
G------------------------------------------------------
D-0-2-3-5--3-2-3--2-0----------------------------------
A------------------------------------------------------
E------------------------------------------------------


Quién diría que estás de nuevo frente a mí,
pidiendo perdón por haberme hecho sufrir así,
Tú sabías que él no te amaba como yo,
preferiste el poder del dinero a cambio de este amor.

Y ahora regresas aquí, no quiero saber más de ti,
me pides que vuelva contigo luego de tu traición

Si yo he sido para ti sólo un muñeco de trapo,
como un juguete tú me usaste para pasar el rato,
pero no hay nada, nada, nada que hacer
así como has venido puedes volver,
ahora soy el que rechaza tus besos, vete ya con él.

Si yo he sido para ti sólo un muñeco de trapo,
como un juguete tú me usaste para pasar el rato,
pero la vida da revancha lo ves
y ya no soy el mismo tonto de ayer,
es que he logrado salir adelante junto a otra mujer

SOLO DE TROMPETA:(C-Am-F-C-G)x2

SOLO DE GUITARRA:(G-Em-C-D)
E------------------8-7------------5-----5-----5---5-7-88-77
B-8-5-8-5-8-5--5-8-----5-5----6-8---8-6---8-6--------------
G----------------------------------------------------------
D----------------------------------------------------------
A----------------------------------------------------------
E----------------------------------------------------------

Y ahora regresas aquí, no quiero saber más de ti,
me pides que vuelva contigo luego de tu traición.

Si yo he sido para ti sólo un muñeco de trapo,
como un juguete tú me usaste para pasar el rato,
pero no hay nada, nada, nada que hacer
así como has venido puedes volver,
ahora soy el que rechaza tus besos, vete ya con él.

Si yo he sido para ti sólo un muñeco de trapo,
como un juguete tú me usaste para pasar el rato,
pero la vida da revancha lo ves
y ya no soy el mismo tonto de ayer,
es que he logrado salir adelante junto a otra mujer.

SOLO DE TROMPETA:(C-Am-F-G-B-B#)

FIN.


ESPEROO QUE ESTE BIEN!! CUALQUIER COSA ME AVISAN.


NEGRO C.A.C VE!

            
            
Suggest correction
Creating personal tab
Creating personal tab
You can edit any tab online and save it as your Personal.

You can edit, replace or remove any tab part or add personal notes – all changes will be seen only by you.

Personal tabs can be accessed anytime from any device, even offline.
Learn more »
Give kudos to tab author, rate the tab!
1 2 3 4 5
comments
print report bad tab
guest
Wanna post a correction for this tab? Suggest correction