Oops, an error
Loading. Please wait.

Fín De Año tab

20 views 1 this week
no commentswrite comment
1 2 3 4 5
3 more votes to show rating
add to favorites
×
Save as Personal and add changes to this tab that will be seen only by you. Learn more ›
×
You can save this tab as Personal to edit and correct it or add notes. All changes will be seen only by you. Learn more »
launch autoscroll
font size
0
reset
how to read this tab
guitar tuner
edit
Autoscroll
slow
fast
+/-
esc
set tempo
stop
intro

Gt1
E -------------------------------------
B -------------------------------------
G -------------------------------------
D ---3--3-2--2-0-2-2-3-2-0-0-2---------     X2
A --3----------------------------------
E -------------------------------------

GT 2
Palm Mute
F, Em, E, Am

****Verso:  Lo pueden hacer las 2 guitarras una con palm mute
    y otra dando un rasgueo largo por nota

F                              Em
Hoy es fin de año y no deseo ver a nadie
E                      Am
es un dia para olvidarlo.
F                               Em
Esta noche no entrara nadie al tocador.
E                                 Am
Me pregunto qué estaras haciendo.


D               A#     E               A
No os puedo creer tanta felicidad
D                          A#           E                 A
por mi os podéis largar con vuestra falsedad.


Puente
Am,  Dm,    G,     C,     F  ,  Em,    E,    Am
E --------3-1---------1-0-------0------------------
B ------1------------1---------1--3----3-3-0-0-1---
G --2-2------------2---------2---------------------
D -------------------------------------------------
A -------------------------------------------------
E -------------------------------------------------

GT1 Punteo
GT2 Acordes


***En esta parte la guitarra uno hace el punteo del intro y
   la segunda hace los acordes con palm mute

F                              Em
Porque intentarán hacernos creer
E                      Am
que hoy es un dia especial.
F                                        Em
me siento hecho una mierda, infeliz año nuevo
E                              Am
me gusta el olor que desprendo.
F          Em         E                             Am
El año pasado brindábamos por mejores tiempos.
F                 Em
Puto brindis, jodido brindis,
E                     D        A#
lo vomito en el infierno, infierno,
E               A        D           A#
esto es el infierno, esto es el infierno
E               A
y me quemo por dentro.
D               A#     E               A
No os puedo creer tanta felicidad,
D                    A#     E                 A
los mismos miserables mañana volvéreis a ser.


F                                         Em
Son las tre de la madrugada y no encuentro paz,
E                                    Am
escribo esta canción para no recordarte,
F                                        Em
los acordes duelen y no los considero buenos amigos,
E                                      Am
y las notas me torturan en tu nombre.


Am  Dm    G                       C
  Ojalá      mañana salga el sol,
F         Em          E              Am
la ciudad amanecerá sucia y violada,


***Guitarra 1 hace el segundo punteo y la 2 hace los acrdes


Am     Dm    G                       C
 sueño con   encontrarnos en medio de las Ramblas,
F         Em          E              Am
y abrazarte como nunca lo hice,
Am               Dm      G            C
  ya sé que lo nuestro se ha acabado,
F                        Em                           E                 Am
y mejor que nos ignoremos y olvidemos majestuosos momentos.


Parte final
Gt 2
Am, Dm, G, C, F, Em, E, Am


Punteo final

E -----14-13-14-13-14-13-------14-13-14-13-14-13-11-13-------------
B -----------------------------------------------------------------
G -----------------------------------------------------------------
D -----------------------------------------------------------------
A -----------------------------------------------------------------
E -----------------------------------------------------------------

E ----13-11-13-11-13-11-8-10--------------------------------------
B ----------------------------------------------------------------
G ----------------------------------------------------------------
D ----------------------------------------------------------------
A ----------------------------------------------------------------
E ----------------------------------------------------------------


E ----10 8-10-8-7-8-7-5-------------------------------------------
B ----------------------------------------------------------------
G ----------------------------------------------------------------
D ----------------------------------------------------------------
A ----------------------------------------------------------------
E ----------------------------------------------------------------

            
            
Suggest correction
Creating personal tab
Creating personal tab
You can edit any tab online and save it as your Personal.

You can edit, replace or remove any tab part or add personal notes – all changes will be seen only by you.

Personal tabs can be accessed anytime from any device, even offline.
Learn more »
Give kudos to tab author, rate the tab!
1 2 3 4 5
comments
print report bad tab
guest
Wanna post a correction for this tab? Suggest correction