Oops, an error
Loading. Please wait.

Mía tab

16 views 1 this week
no commentswrite comment
1 2 3 4 5
3 more votes to show rating
add to favorites
×
Save as Personal and add changes to this tab that will be seen only by you. Learn more ›
×
You can save this tab as Personal to edit and correct it or add notes. All changes will be seen only by you. Learn more »
launch autoscroll
font size
0
reset
how to read this tab
guitar tuner
edit
Autoscroll
slow
fast
+/-
esc
set tempo
stop
        C       C        C   F  G   F  F
|------------------------------X---X---X---X----|
|--------1--------1--------1---1---3---1---1----|
|------0--------0--------0-----2---4---2---2----|
|--2-3------2-3------2-3-------3---5---3---3----|
|------------------------------3---5---3---3----|
|------------------------------X---X---X---X----|


 C                   Em
Siempre que yo te pregunto
    Am                  Em
qué cosa pasó entre los dos
     F                Em
tan sólo volteas la mirada
     Dm                G7
y esquivas la conversación.

 C                       Em
Siempre soy yo el que te busca
    Am                      Em
también quien te espera soy yo,
    F                  Em
quizá si tú y yo conversamos
      Dm                   G7
o tal vez el silencio es mejor.

          F           G               C     Dm   Em  G   F
Porque quiero que tú     sigas siendo mía,  mía, míííaaaa.
                G                 C   Dm   Em  G   F
necesito que tú     sigas siendo mía, mía, míííaaaa.

 C                    Em
Sé que he fallado mil veces
   Am                 Em
tratando de hacerte feliz
     F               Em
también han habido momentos
       Dm              G7
que me han apartado de ti.

 C                    Em
Sabes que no te he mentido
     Am                 Em
Te quiero y esa es la razón
 F                   Em
Por la que hoy te lo pido,
     Dm                  G7
Intentemos salvar este amor.


         F            G               C     Dm   Em  G   F
Porque quiero que tú     sigas siendo mía,  mía, míííaaaa.
                G                C   Dm    Em  G   F
necesito que tú     sigas siendo mía, mía, míííaaaaa.

          C                    Em          Am
|--------------------7>8----7>8------7>8-7------------5--------
|--6>5----5---6>5--------5------5--5--------5-5-5-6-8----------
|--5---7--5---5---7--------------------------------------5-5---
|--------------------------------------------------------------
|--------------------------------------------------------------
|--------------------------------------------------------------

                   F     G
---------------------------------------------------------------|
-------5-5------------6--6--8--8--10--10--12--12--13--15--17---|
-5--7--------------5--7--7--9--9--10--10--12--12--14--16--17---|
------------5-5>7----------------------------------------------|
---------------------------------------------------------------|
---------------------------------------------------------------|


  F            G                C     Dm   Em  G  F
Quiero que tú      sigas siendo mía,  mía, míííaaaa.
                G                C    Dm   Em  G  F
Necesito que tú     sigas siendo mía, mía, míííaaaa.
         F            G               C     Dm   Em  G   F
Porque quiero que tú     sigas siendo mía,  mía, míííaaaa.
                G                C    Dm   Em  G     F
necesito que tú     sigas siendo mía, mía, míííaaaaaa.
Suggest correction
Creating personal tab
Creating personal tab
You can edit any tab online and save it as your Personal.

You can edit, replace or remove any tab part or add personal notes – all changes will be seen only by you.

Personal tabs can be accessed anytime from any device, even offline.
Learn more »
Give kudos to tab author, rate the tab!
1 2 3 4 5
comments
print report bad tab
guest
Wanna post a correction for this tab? Suggest correction