Oops, an error
Loading. Please wait.

La Mora Limpia tab

225 views 6 this week
no commentswrite comment
1 2 3 4 5
2 more votes to show rating
add to favorites
×
Save as Personal and add changes to this tab that will be seen only by you. Learn more ›
×
You can save this tab as Personal to edit and correct it or add notes. All changes will be seen only by you. Learn more »
launch autoscroll
font size
0
reset
how to read this tab
guitar tuner
edit
Autoscroll
slow
fast
+/-
esc
set tempo
stop
Esto es como el segundo Himno Nacional
para los y las Nicaragüenses, lo que la gente no sabe
es que el compositor de esta linda melodia se llama Justo Santos
y es una canción con la cual gano un concurso de compositores
locales allá por los años 30.

Aqui les va el Tab no se molesten por letra porque no tiene!

Part I
|--------------------0-0-0-0--0-----0--2--0-----0--0-0-0-0-------|
|--------------0--1--1-1-1-1-----4-----------4-----0-0-0-0-------|
|--------0--2--------2-2-2-2-----------------------0-0-0-0-------|
|--2--4--------------2-2-2-2-----------------------2-2-2-2-------|
|--------------------0-0-0-0-----------------------2-2-2-2-------|
|--------------------0-0-0-0-----------------------0-0-0-0-------|

|--0-----0--3--2--0-----2-----------------------------------0----|
|-----4--------------4--------1-----0--------------------0--0----|
|--------------------------2-----0-----2|--0|---------0-----0----|
|----------------------------------------------4|--2-------------|
|----------------------------------------------------------------|
|--------------------------------------------------0--------0----|

|--0-0-0-0--|
|--0-0-0-0--|
|--0-0-0-0--|
|--2-2-2-2--|
|--2-2-2-2--|
|--0-0-0-0--|

|--------------------0-0-0-0--0-----0--2--0-----0--0-0-0-0-------|
|--------------0--1--1-1-1-1-----4-----------4-----0-0-0-0-------|
|--------0--2--------2-2-2-2-----------------------0-0-0-0-------|
|--2--4--------------2-2-2-2-----------------------2-2-2-2-------|
|--------------------0-0-0-0-----------------------2-2-2-2-------|
|--------------------0-0-0-0-----------------------0-0-0-0-------|

|--0-----0--3--2--0-----2-----------------------------------0----|
|-----4--------------4--------1-----0--------------------0--0----|
|--------------------------2-----0-----2|--0|---------0-----0----|
|----------------------------------------------4|--2-------------|
|----------------------------------------------------------------|
|--------------------------------------------------0--------0----|

|--0-0-0-0--|
|--0-0-0-0--|
|--0-0-0-0--|
|--2-2-2-2--|
|--2-2-2-2--|
|--0-0-0-0--|

|--0-----0--3--2--0-----0---2-2--5-5--8--8---7--0-0-0-0----------|
|-----4--------------4------4-4--7-7--10-10--8--0-0-0-0----------|
|-----------------------------------------------0-0-0-0----------|
|-----------------------------------------------2-2-2-2----------|
|-----------------------------------------------2-2-2-2----------|
|-----------------------------------------------0-0-0-0----------|

|--0-----0--3--2--0-----0---2-2--5-5--8--8---7--0-0-0-0----------|
|-----4--------------4------4-4--7-7--10-10--8--0-0-0-0----------|
|-----------------------------------------------0-0-0-0----------|
|-----------------------------------------------2-2-2-2----------|
|-----------------------------------------------2-2-2-2----------|
|-----------------------------------------------0-0-0-0----------|

Part II
|-------------8--7-------7-----------10-----10-----7-------------|
|--10--9--10---------10--8-----8----------------------8----------|
|------------------------7--7-----7------7------7--------7-------|
|----------------------------------------------------------------|
|----------------------------------------------------------------|
|----------------------------------------------------------------|

|--7--8--7-------------7--8--7---------7--8--7-----------7--8--7-|
|-----------10--7----------------8--------------10--7------------|
|------------------8----------------9------------------8---------|
|----------------------------------------------------------------|
|----------------------------------------------------------------|
|----------------------------------------------------------------|

|-----------------0-----------0-0-0-0--2--1--2--5--3--2--3-------|
|--8-----1--0--1-----3--1--0--0-0-0-0----------------------------|
|-----9-----------------------0-0-0-0----------------------------|
|-----------------------------2-2-2-2----------------------------|
|--------0--------------------2-2-2-2----------------------------|
|--------------------------0--0-0-0-0--------------------0-------|

|--0-0-0-0-----------0-----------0--2--3--2--0--2-----0--0-0-0-0-|
|--0-0-0-0--1--0--1-----3--1--0--------------------4-----0-0-0-0-|
|--0-0-0-0-----------------------------------------------1-1-1-1-|
|--2-2-2-2-----------------------------------------------2-2-2-2-|
|--2-2-2-2--0--------------------------------------------2-2-2-2-|
|--0-0-0-0--------------------0-----------------------0--0-0-0-0-|

|--0-0-0-0--0-0-0-0----------------------------------------------|
|--0-0-0-0--0-0-0-0----------------------------------------------|
|--1-1-1-1--1-1-1-1----------------------------------------------|
|--2-2-2-2--2-2-2-2----------------------------------------------|
|--2-2-2-2--2-2-2-2----------------------------------------------|
|--0-0-0-0--0-0-0-0----------------------------------------------|

Part III
|-----0-----0-----2-----4-----4-----4-----9-----9----9-----7-----|
|----------------------------------------------------------------|
|--------1-----2-----------4-----4-----------9-----9----------8--|
|----------------------------------------------------------------|
|----------------------------------------------------------------|
|--0-----------------0-----------------0----------------0--------|

|--7-----7------11------11-----9--7-----7-----7--5-----5-----5---|
|----------------------------------------------------------------|
|-----8-------------11------9--------8-----8--------6-----6------|
|-----------9----------------------------------------------------|
|----------------------------------------------------------------|
|----------------------------------------------------------------|

|-----4-----4-----4-----0-----0-----2-----4-----4-----4-----7----|
|----------------------------------------------------------------|
|--------4-----4-----------1-----2-----------4-----4-----------7-|
|----------------------------------------------------------------|
|----------------------------------------------------------------|
|--0-----------------0-----------------0------------------0------|

|--7-----7-----5-----5-----5------5------7------9------7-----5-5-|
|----------------------------------------------------------------|
|-----7-----------6-----6---------6------8------9------8-----6-6-|
|----------------------------------------------------------------|
|-----------0----------------------------------------------------|
|----------------------------------------------------------------|

|--4-4--2--4--2--0---0-0-0-0-------------------------------------|
|----------------0---0-0-0-0-------------------------------------|
|--4-4--2--4--2--1---1-1-1-1-------------------------------------|
|----------------2---2-2-2-2-------------------------------------|
|----------------2---2-2-2-2-------------------------------------|
|----------------0---2-2-2-2-------------------------------------|


El acompañamiento a esta canción es estilo huapango
parece dificil pero en realidad es bien sencilla, suerte!!!!
Correcciones y Comentarios a mi correo.

            
            
Suggest correction
Creating personal tab
Creating personal tab
You can edit any tab online and save it as your Personal.

You can edit, replace or remove any tab part or add personal notes – all changes will be seen only by you.

Personal tabs can be accessed anytime from any device, even offline.
Learn more »
Give kudos to tab author, rate the tab!
1 2 3 4 5
comments
print report bad tab
guest
Wanna post a correction for this tab? Suggest correction