Oops, an error
Loading. Please wait.

Para Mí tab

17 views 1 this week
no commentswrite comment
1 2 3 4 5
3 more votes to show rating
add to favorites
×
Save as Personal and add changes to this tab that will be seen only by you. Learn more ›
×
You can save this tab as Personal to edit and correct it or add notes. All changes will be seen only by you. Learn more »
launch autoscroll
font size
0
reset
how to read this tab
guitar tuner
edit
Autoscroll
slow
fast
+/-
esc
set tempo
stop
para MI
-  esta es mi correccion pasada y esta si esta mucho mejor porque le faltaban unos arreglillos
pero pues ahi sta y bueno.

     G               D                    Em                            C
1|---3------3----------------2h3h2---------0------------0-------0-------------0---------
2|------0------0--------3----------3---------0----0---0---0---0---0-------1-----1---1---
3|--------0------0----2---2--------------------0----0-------0-------0-------0-----0-----
4|--------------------------------------------------------------------------------------
5|-----------------------------------------2-----------------------------3--------------
6|---3----------------------------------------------------------------------------------

     D                     G                             C
1|-------------2h3h2-------3--------------0-------0----------0--------------------------
2|-------3--------------------3--3--30--3--3-0--3--3-0-----1--1-1-----------------------
3|---------2-----------------0--0--0---0-0--0--0-0--0-------0--0------------------------
4|---0----------------------------------------------------------------------------------
5|-------------------------------------------------------3------------------------------
6|-------------------------3------------------------------------------------------------


1|--------2h3h2---0--2--------
2|------3-------3--3----------
3|-------2-------2--2---------
4|-----0----------------------
5|----------------------------
6|----------------------------


(despues de esto va un arpegiesillo q va con los acordes q les voy a poner
no les pongo todo porque sta bien facil y me da flojera ponerlo)

G      D       Em
si es que fallé
         C           D
fue por que no supe ver
           G         Em
lo que querías tu de mi
         C              D
y en verdad me siento triste.

(aqui empiesa ya un rasgeo con estos acordes)
G      D        Em
se que no fui yo
        C             D
el que dijo aquellas cosas
          G           Em
que no quisiste escuchar
           C             D
el que habló fue el corazón.

CORO:
            C    D    G
ahora sin ti no se vivir,
             C         D     G
no se que hacer, ni a donde ir
             C    D         G          Em
es que no hay mujer que me haga tan feliz,
      C          D          (G, D, Em, C, D, G, Em, C, D)
tu naciste para mi, para mi.

(estos versos van igual q el primero con el rasgeo)

te pido perdón
si el amor me hizo creer
que me querías como yo,
interprete mal tu mirada.

pero no fue error
y todo lo que paso
se lo agradezco a mi dios
quien me hizo conocerte.

CORO:
              C     D    G
y esque  sin ti no se vivir,
             C         D     G
no se que hacer, ni a donde ir
             C    D         G          Em
es que no hay mujer que me haga tan feliz,
      C          D           (G, D, Em, C, D, G)
tu naciste para mi, para mi.            tu nacistes para mi, para mi.

            
            
Suggest correction
Creating personal tab
Creating personal tab
You can edit any tab online and save it as your Personal.

You can edit, replace or remove any tab part or add personal notes – all changes will be seen only by you.

Personal tabs can be accessed anytime from any device, even offline.
Learn more »
Give kudos to tab author, rate the tab!
1 2 3 4 5
comments
print report bad tab
guest
Wanna post a correction for this tab? Suggest correction