Oops, an error
Loading. Please wait.

Pensando En Tí tab

17 views 1 this week
no commentswrite comment
1 2 3 4 5
3 more votes to show rating
add to favorites
×
Save as Personal and add changes to this tab that will be seen only by you. Learn more ›
×
You can save this tab as Personal to edit and correct it or add notes. All changes will be seen only by you. Learn more »
launch autoscroll
font size
0
reset
how to read this tab
guitar tuner
edit
Autoscroll
slow
fast
+/-
esc
set tempo
stop
Canción para todos aquellos
que quieran cantarle a esa persona especial
lo que sienten por ella o el?
esta canción es mi favorita y no
quise dejarla incompleta como la
otra persona a quien
le corregí su transcripción.
Disfrútenla. PD. lean hasta abajo.

Introducción:
e|--------0--0------0h2p0----------------0-----------0---0--|
B|-0------0-------3-------3-------0------0---------0---0-2--|
G|-2---2--------2-----------2-(0)-2---2----------1-------3--|
D|---2-------0----------------------2----------2---------0--|
A|-0------0-----------------------0------0---2-----------0--|
E|-----------------------------------------0-------------0--|

e|----------0--0-------0------------0--0------0--|
B|-0--------0--------3-3---0--------0------3--3--|
G|-------2--------2--------------2-------2-------|
D|----2--------0--------------2--------0---------|
A|-0-----------------------0---------------------|
E|-----------------------------------------------|
Pensando en ti hoy descubrí lo que hay    en mi

e|----------0--0-------0------------0--0-----0h2p0-----|
B|-0--------0--------3-3---0--------0------3-------2---|
G|-------2--------2--------------2-------2-----------3-|
D|----2--------0--------------2--------0---------------|
A|-0-----------------------0---------------------------|
E|-----------------------------------------------------|
Es el deseo    de estar   por siempre junto a ti

e|-------0---------2----------4------------|
B|-------0---------0----------5------------|
G|-----1-1------2--2--------6-6------------|
D|---2---2----0----0------6---6------------|
A|-------2--0------0---4------0------------|
E|-0-----0---------------------------------|
Porque simplemente eres lo que yo quería encontrar

e|-0------0--------------0------------0----|
B|-----3--3--3---3-----3-3------------0----|
G|---2---------2-----2-------------1--1----|
D|-0---------------0-------------2----2----|
A|-----------------------------2-----------|
E|---------------------------0-------------|
                          Una perfección de

e|-------0--0-----0---|
B|-0-----0------3-3---|
G|-----2------2-------|
D|---2------0---------|
A|-0------------------|
E|--------------------|
Dios

e|----------0--0-------0------------0--0------0--|
B|-0--------0--------3-3---0--------0------3--3--|
G|-------2--------2--------------2-------2-------|
D|----2--------0--------------2--------0---------|
A|-0-----------------------0---------------------|
E|-----------------------------------------------|
Déjame entrar  te juro  no fallaaaaarte

e|----------0--0-------0------------0--0------0--|
B|-0--------0--------3-3---0--------0------3--3--|
G|-------2--------2--------------2-------2-------|
D|----2--------0--------------2--------0---------|
A|-0-----------------------0---------------------|
E|-----------------------------------------------|
De veras no te miento por ti yo estoy muriendo

e|--------------0------------2--------------------|
B|--------------0------------0--------------------|
G|-----------1--1---------2--2--------------------|
D|--------2-----2-------0----0--------------------|
A|--------------2-----0------0--------------------|
E|-----0--------0---------------------------------|
Aunque hay algo que no entiendo

e|----------------4--0-----0----------0--0----|
B|----------------5------3-3----------0--0----|
G|------------6---6----2--------------1--2----|
D|--------6-------6--0-----------2----2--2----|
A|----4-----------0------------2------2--2----|
E|---------------------------0----------------|
Como te llegue a querer

        Asus2            Dsus2                 Asus2
Si aquí estoy yo el que te extraña cada amanecer
        Dsus2                   C#m
El que nunca va a dejarte de querer
        Dsus2                E    Esus4
Aunque sientas que estás tan sola
    Asus2        Dsus2                      Asus2
Y aquí estaré porque me encanta tu forma de ser
     Dsus2                    C#m
Yo solo quiero hacerte comprender
       Dsus2        E   Dsus2
Que te haría más feliz

Asus2 Dsus2 Asus2 Dsus2 C#m Dsus2 E Dsus2

e|----------0--0-------0------------0--0-----0h2p0-----|
B|-0--------0--------3-3---0--------0------3-------2---|
G|-------2--------2--------------2-------2-----------3-|
D|----2--------0--------------2--------0---------------|
A|-0-----------------------0---------------------------|
E|-----------------------------------------------------|
Déjame entrar  te juro  no fallaaaaarte

e|----------0--0-------0------------0--0------0--|
B|-0--------0--------3-3---0--------0------3--3--|
G|-------2--------2--------------2-------2-------|
D|----2--------0--------------2--------0---------|
A|-0-----------------------0---------------------|
E|-----------------------------------------------|
De veras no te miento por ti yo estoy muriendo

e|--------------0------------2--------------------|
B|--------------0------------0--------------------|
G|-----------1--1---------2--2--------------------|
D|--------2-----2-------0----0--------------------|
A|--------------2-----0------0--------------------|
E|-----0--------0---------------------------------|
Aunque hay algo que no entiendo

e|----------------4--0-----0----------0--0----|
B|----------------5------3-3----------0--0----|
G|------------6---6----2--------------1--2----|
D|--------6-------6--0-----------2----2--2----|
A|----4-----------0------------2------2--2----|
E|---------------------------0----------------|
Como te llegue a querer

        Asus2            Dsus2                 Asus2
Y aquí estoy yo el que te extraña cada amanecer
     Dsus2                    C#m
Yo solo quiero hacerte comprender
       Dsus2        E  Dsus2
Que te haría más feliz

e|----------0--0-------0------------0--0-----0--0------------|
B|-0--------0--------3-3---0--------0------3-3----0----------|
G|-------2--------2--------------2-------2----------2--------|
D|----2--------0--------------2--------0--------------2------|
A|-0-----------------------0----------------------------0----|
E|--------------------------------------------------------0--|
Te extraño   uuuuuu uuuuuuuu


Los acordes usados son:

   Asus2  Dsus2  C#m o C#m  E  Esus4
e|---0-----0------4-----4----0----0-----------------------------------|
B|---0-----3------5-----5----0----0-----------------------------------|
G|---2-----2------6-----6----1----2-----------------------------------|
D|---2-----0------6-----6----2----2-----------------------------------|
A|---0-----0------0-----4----2----2-----------------------------------|
E|---0-----0------x-----4----0----0-----------------------------------|

NOTA: tengan cuidado con todos
los cambios de la canción, se parece
mucho toda la canción, pero
existen partes donde cambia mucho,
y hay notas que no se escuchan demasiado
así que pongan atención a la canción
y les saldrá sin problemas,
jueguen con el acorde de C#m

Dedicada a... quien corresponda.

            
            
Suggest correction
Creating personal tab
Creating personal tab
You can edit any tab online and save it as your Personal.

You can edit, replace or remove any tab part or add personal notes – all changes will be seen only by you.

Personal tabs can be accessed anytime from any device, even offline.
Learn more »
Give kudos to tab author, rate the tab!
1 2 3 4 5
comments
print report bad tab
guest
Wanna post a correction for this tab? Suggest correction